» » »

Rammstein, Rein Raus Bass tabs (ver.1)

Artists:  A B C D E F G H I J K L M N O P Q R S T U V W X Y Z # 

Rein Raus Bass tabs (ver.1)

Rammstein Tabs
 Rating:
4/5 (4 votes)
Rein Raus  lessons Tabs too difficult? Try these video lessons and learn fast
1
                (2)
G|--------------|
D|--------------|
A|--------------|
E|------6-6-6-6-|

Riff

|----------------------|-----------------|
|----------------------|-----------------|
|----------------------|-----------------|
|-3-2-2-2-2-2-3-5( x3)-|-3-2-2-2-2-6-6-6-| 
 
Verse

|------------|------------|-----------------|------------|------------|
|------------|------------|-----------------|------------|------------|
|------------|------------|-----------------|------------|------------|
|-1-0-0-0----|-1-0-0-0----|-1-0-0-0-0-0-1-3-|-1-0-0-0----|-1-0-0-0----|

|------------|-----------------|-----------------|
|------------|-----------------|-----------------|
|------------|-----------------|-----------------|
|-1-0-0-0----|-1-0-0-0-0-0-1-3-|-1-0-0-0-0-0-3-5-|

Riff (x2)

Verse 2

|--------------|--------------|-----------------|--------------|
|--------------|--------------|-----------------|--------------|
|--------------|--------------|-----------------|--------------|
|-1-0-0-0--0—0-|-1-0-0-0--0—0-|-1-0-0-0-0-0-1-3-|-1-0-0-0--0—0-|            

|-----------------|-----------------|-----------------|-----------------|
|-----------------|-----------------|-----------------|-----------------|
|-----------------|-----------------|-----------------|-----------------|
|-1-0-0-0-0-0-1-3-|-1-0-0-0-0-0-1-3-|-1-0-0-0-0-0-1-3-|-1-0-0-0-0-0-1-3-|

Riff (x2)

Bridge 

|-----------------|-----------------|-----------------|-----------------|
|-----------------|-----------------|-----------------|-----------------|
|-----------------|-----------------|-5-4-4-4-4-4-5-7-|-5-4-4-4-4-4-5-7-| (x2)
|-7-7-7-7-7-7-7-7-|-5-5-5-5-5-5-5-5-|-----------------|-----------------|

|-----------------|-----------------|
|-----------------|-----------------|
|-5-4-4-4-4-4-5-7-|-5-4-4-4-4-4-5-7-|
|-----------------|-----------------|

Bridge 2

|------------|------------|------------|------------|------------|
|------------|------------|------------|------------|------------|
|------------|------------|------------|------------|------------|
|---2--------|------------|--2-2-------|--2-2-------|---2--------|

Riff (x2)

Verse 2

|-----------------|
|-----------------|
|-1-0-0-0-0-0-1-3-|(x8)
|-----------------|

Riff (x2)

end
            
Submit corrections

comments powered by Disqus
↑ Back to top | Rammstein Bass for Rein Raus. Lyrics for acoustic guitar and electric guitar. 1 Tablatures and chords are parodies/interpretations of the original songs. You may use it for private study, scholarship, research or language learning purposes only