» » »

Rein Raus Tabs (ver.1)

Artists:  A B C D E F G H I J K L M N O P Q R S T U V W X Y Z # 

Rein Raus Tabs (ver.1)

Rammstein
Rating:
0/5 (0 votes)

Hard to play? Try these video lessons and learn fast.
                
__________________________|
_________KEY______________|
   /=Slide Up             |
   \=Slide Down           |
 (#)=Ghost note           |
   *=Harmonics            |
  PM=Palm Mute            |
   ~=hammer on            |
  ~~=Tremolo Picking      |
   X=Dampen String        |
*--*=No Guitar Part       |
   "=Let note ring        |
   ^=Bend down            |
   '=Bend up              |
   >=Pull off             |
 (+)=Wah open             |
 (-)=Wah closed           |
   /\=Pick scratch up     |
   \/=Pick scratch down   |
   | =Second part of Riff |
   ||=Guitar 2            |
__________________________|

___________________________________________|
|                (SONG)                    |
|               (ARTIST)                   |
|                                          |
|          Clean         Gain              |
|__________________________________________|
|Amp Model: n/a          | Mesa boogie 3Rec|
|   Guitar: n/a          | EMG-81 w/ESP    |
|     Gain: n/a          | 6               |
|    Shape: n/a          | 10              |
|      Low: n/a          | 4               |
|   Medium: n/a          | n/a             |
|     High: n/a          | 10              |
|Ch.Volume: n/a          | 5               |
|   Reverb: n/a          | n/a             |
|  Effects: n/a          | n/a             |
|    Notes: Neck p/u     | Bridge p/u      |
|           HB           | HB              |
|________________________|_________________|


		            Drop D
		    1-E
		    2-B
		    3-G
		    4-D
		    5-A
		    6-D

  D5    D#5   E5    F5    G5    G#5   A5    A#5   B5     C5    *D5
E|---| |---| |---| |---| |---| |---| |---| |---| |---| |----| |----|
B|---| |---| |---| |---| |---| |---| |---| |---| |---| |----| |----|
G|---| |---| |---| |---| |---| |---| |---| |---| |---| |----| |----|
D|-0-| |-1-| |-2-| |-3-| |-5-| |-6-| |-7-| |-8-| |-9-| |-10-| |-12-|
A|-0-| |-1-| |-2-| |-3-| |-5-| |-6-| |-7-| |-8-| |-9-| |-10-| |-12-|
D|-0-| |-1-| |-2-| |-3-| |-5-| |-6-| |-7-| |-8-| |-9-| |-10-| |-12-|


Main Riff X2
|-----|---------------|------------------|---------------|
|-----|---------------|------------------|---------------|
|-----|---------------|------------------|---------------|
|-666-|-3/2-2-2-2-3/5-|-3/2-2-2-2222-3/5-|-3/2-2-2-2-3/5-|
|-666-|-3/2-2-2-2-3/5-|-3/2-2-2-2222-3/5-|-3/2-2-2-2-3/5-|
|-666-|-3/2-2-2-2-3/5-|-3/2-2-2-2222-3/5-|-3/2-2-2-2-3/5-|
PM          .   .           .   ....           .   .     ]

Main Riff(Continued from above)
-------------|
-------------|
-------------|
-3/2-2-2-666-|
-3/2-2-2-666-|
-3/2-2-2-666-|
PM   .       ]


Verse X2
|-------|-------|--------------------|
|-------|-------|--------------------|
|-------|-------|--------------------|
|-1-0-0-|-1-0-0-|-1-0-0-0-1/3--1-0-0-|
|-1-0-0-|-1-0-0-|-1-0-0-0-1/3--1-0-0-|
|-1-0-0-|-1-0-0-|-1-0-0-0-1/3--1-0-0-|
PM                      .            ]

(Continued from above)
-------|-------|--------------------|
-------|-------|--------------------|
-------|-------|--------------------|
-1-0-0-|-1-0-0-|-1-0-0-0-1/3--1-0-0-|
-1-0-0-|-1-0-0-|-1-0-0-0-1/3--1-0-0-|
-1-0-0-|-1-0-0-|-1-0-0-0-1/3--1-0-0-|
                       .            ]
1.Ich bin der Reiter
du bist das Ross
ich steige auf
wir reiten los
du stöhnst ich sag dir vor
ein Elefant im Nadelöhr

Main Riff X2
|---------------|------------------|---------------|
|---------------|------------------|---------------|
|---------------|------------------|---------------|
|-3/2-2-2-2-3/5-|-3/2-2-2-2222-3/5-|-3/2-2-2-2-3/5-|
|-3/2-2-2-2-3/5-|-3/2-2-2-2222-3/5-|-3/2-2-2-2-3/5-|
|-3/2-2-2-2-3/5-|-3/2-2-2-2222-3/5-|-3/2-2-2-2-3/5-|
PM    .   .           .   ....           .   .     ]

Main Riff(Continued from above)
-------------|
-------------|
-------------|
-3/2-2-2-666-|
-3/2-2-2-666-|
-3/2-2-2-666-|
PM   .       ]
Rein, Raus!


Verse2
|-------|-------|-Repeat this--|
|-------|-------|-part a bunch-|
|-------|-------|--------------|
|-1-0-0-|-1-0-0-|-1-0-0-0-1/3--|
|-1-0-0-|-1-0-0-|-1-0-0-0-1/3--|
|-1-0-0-|-1-0-0-|-1-0-0-0-1/3--|
PM                      .      ]
2.Ich bin der Reiter
du bist das Ross
ich hab den Schlüssel
du hast das Schloß
die Tür geht auf ich trete ein
das Leben kann so prachtvoll sein


Main Riff X2
|---------------|------------------|---------------|
|---------------|------------------|---------------|
|---------------|------------------|---------------|
|-3/2-2-2-2-3/5-|-3/2-2-2-2222-3/5-|-3/2-2-2-2-3/5-|
|-3/2-2-2-2-3/5-|-3/2-2-2-2222-3/5-|-3/2-2-2-2-3/5-|
|-3/2-2-2-2-3/5-|-3/2-2-2-2222-3/5-|-3/2-2-2-2-3/5-|
PM    .   .           .   ....           .   .     ]

Main Riff(Continued from above)
-------------|
-------------|
-------------|
-3/2-2-2-666-|
-3/2-2-2-666-|
-3/2-2-2-666-|
PM   .       ]
Rein, Raus!

Chorus
|--------------------------------|
|--------------------------------|
|--------------------------------|
|-7-7-9-9--10-10-10-10-10--12--9-|
|-7-7-9-9--10-10-10-10-10--12--9-|
|-7-7-9-9--10-10-10-10-10--12--9-|
PM             .     .           ]
3.Tiefer tiefer
sag es sag es laut
tiefer tiefer
ich fühl mich wohl in deiner Haut 
und tausend Elefanten brechen aus

Brifge
|-5-1-3-0-6-5-3-8-6-|
|-------------------|
|-------------------|
|-------------------|
|-------------------|
|-------------------|
4.Der Ritt war kurz
es tut mir leid
ich steige ab hab keine Zeit
muss jetzt zu den anderen ferden
wollen auch geritten werden

First part
Richard does this      Paul does this
|---------------------|-----|
|-99999999999999999-9~|-----|
|---------------------|-----|
|---------------------|-3-3-|
|---------------------|-3-3-|
|---------------------|-3-3-|

Solo w/wah wah
|-------------------------|---------------------8~--|
|-10-9-10-9-10-9-10-9-----|-10-9-10-9-10-9-10-9-----|
|---------------------9-9-|-------------------------|
|-------------------------|-------------------------|
|-------------------------|-------------------------|
|-------------------------|-------------------------|


Outro
|-------------|
|-------------|
|-------------|
|-6---5---6/8-|
|-6---5---6/8-|
|-6-5-5-5-6/8-|
PM  .   .     ]
Rein, Raus!

|---------------|------------------|---------------|
|---------------|------------------|---------------|
|---------------|------------------|---------------|
|-3/2-2-2-2-3/5-|-3/2-2-2-2222-3/5-|-3/2-2-2-2-3/5-|
|-3/2-2-2-2-3/5-|-3/2-2-2-2222-3/5-|-3/2-2-2-2-3/5-|
|-3/2-2-2-2-3/5-|-3/2-2-2-2222-3/5-|-3/2-2-2-2-3/5-|
PM    .   .           .   ....           .   .     ]

Main Riff(Continued from above)
-------------|
-------------|
-------------|
-3/2-2-2-666-|
-3/2-2-2-666-|
-3/2-2-2-666-|
PM   .       ]
Rein (tiefer)
Raus (tiefer)
            
Hard to play? Try these video lessons and learn fast. | Correct




comments powered by Disqus
↑ Back to top | Tablatures and chords are parodies/interpretations of the original songs. You may use it for private study, scholarship, research or language learning purposes only