» » »

Other World Tabs (ver.1)

Artists:  A B C D E F G H I J K L M N O P Q R S T U V W X Y Z # 

Other World Tabs (ver.1)

Rammstein
Rating:
0/5 (0 votes)

Hard to play? Try these video lessons and learn fast.
                Full Credit to Toshiro for this tab! I just figured I would re-submit it so that it
can get the full recognition that this great song diserves. This song is from Final
Fantasy X, it is played in the first high quality CG sequence and is the best and
heaviest song in the final fantasy series. I play this song alot! Get the song
however you choose you'll be glad you did if you are into metal!



Tuning:
Db-Ab-Db-Gb-Bb-Eb

 Intro (x2)
|-------------------------------------------------------------|
|------15-------------10-------------15-----------------------|
|------17b(19)--------12b(14)--------17b(19)------------------|
|-0-0------------0-0------------0-0------------6\5-6\5-6\5-3--|
|-0-0------------0-0------------0-0------------6\5-6\5-6\5-3--|
|-0-0------------0-0------------0-0------------6\5-6\5-6\5-3--|

 Rhythm Figure 1 (x2)
|-------------------------------|------------------------------|
|-------------------------------|------------------------------|
|-------------------------------|------------------------------|
|-0-0-3\2-0-0-5\3-0-0-7--6\5--3-|-0-0-3\2-0-0-5\3-0-0-7--6-3---|
|-0-0-3\2-0-0-5\3-0-0-7--6\5--3-|-0-0-3\2-0-0-5\3-0-0-7--6-3---|
|-0-0-3\2-0-0-5\3-0-0-7--6\5--3-|-0-0-3\2-0-0-5\3-0-0-7--6-3---|
pm. .     . .     . .             . .     . .     . .      |
                                                On repeat, this chord is
                                                a fermata.

 Verse (x2)
|-------------------------------|------------------------------|
|-------------------------------|------------------------------|
|-------------------------------|------------------------------|
|-0-0-3\2-0-0-5\3-0-0-7--6\5--3-|-0-0-3\2-0-0-5\3-0-0-7--6-3---|
|-0-0-3\2-0-0-5\3-0-0-7--6\5--3-|-0-0-3\2-0-0-5\3-0-0-7--6-3---|
|-0-0-3\2-0-0-5\3-0-0-7--6\5--3-|-0-0-3\2-0-0-5\3-0-0-7--6-3---|
pm. .     . .     . .             . .     . .     . .

 Rhythm Figure 2 (x4)
|---10--10--14--14--14----|
|---9---9---13--13--13----|
|---8---8---12--12--12----|
|-------------------------|
|-------------------------|
|-------------------------|

 Rhythm Fill
|--------------|
|--------------|
|--------------|
|-0-2-3-5-6-8--|
|-0-2-3-5-6-8--|
|-0-2-3-5-6-8--|
pm. . . . . .

 Verse (x2)
|-------------------------------|------------------------------|
|-------------------------------|------------------------------|
|-------------------------------|------------------------------|
|-0-0-3\2-0-0-5\3-0-0-7--6\5--3-|-0-0-3\2-0-0-5\3-0-0-7--6-3---|
|-0-0-3\2-0-0-5\3-0-0-7--6\5--3-|-0-0-3\2-0-0-5\3-0-0-7--6-3---|
|-0-0-3\2-0-0-5\3-0-0-7--6\5--3-|-0-0-3\2-0-0-5\3-0-0-7--6-3---|
pm. .     . .     . .             . .     . .     . .

 Interlude
|-----------------|-----------------|-----------------|----------------|
|---------3-------|---------3-------|---------3-------|---------3------|
|-----2-------2---|-----3-------3---|-----2-------2---|-----1-----1v---|
|-0-0---0---0---0-|-0-0---0---0---0-|-0-0---0---0---0-|-0-0---0--------|
|-----------------|-----------------|-----------------|----------------|
|-----------------|-----------------|-----------------|----------------|
pm. . . . . . . .   . . . . . . . .   . . . . . . . .   . . . . .

|-----------------|-----------------|-----------------|----------------|
|---------3-------|---------3-------|---------3-------|---------3------|
|-----2-------2---|-----3-------3---|-----4-------4---|-----3-----3v---|
|-0-0---0---0---0-|-0-0---0---0---0-|-0-0---0---0---0-|-0-0---0--------|
|-----------------|-----------------|-----------------|----------------|
|-----------------|-----------------|-----------------|----------------|
pm. . . . . . . .   . . . . . . . .   . . . . . . . .   . . . . .

 Rhythm Figure 3 (x2)
|----------------------------|
|----------------------------|
|----------------------------|
|-0--3--0-5--0-3--0-5--0-3---|
|-0--3--0-5--0-3--0-5--0-3---|
|-0--3--0-5--0-3--0-5--0-3---|
pm      .    .    .    .

 Solo (don't know if it's 100% correct, but it's how I play it, and it owns)
|---------------------------------------------------------------------|
|-15------w-w-w-w-w---------------------------------------------------|
|-17b(19)-w-w-w-w-w--17p14h17p14h17p14h17p14h17p14-13b(14)------------|
|----------------------------------------------------------17p15------|
|----------------------------------------------------------------17v\-|
|---------------------------------------------------------------------|

|------------------------------------------------|
|-----------------------------1---1--1-----------|
|---------------------0-2-0---1---1--1--4p2-4-w--|
|-----0-----0-----0-3-------3---------------5-w--|
|---------3-----3--------------------------------|
|-0-0--------------------------------------------|
pm. .

|-x-x-3-x-x-5-x-x-7-5-7-10---7---5-12=10=7=12=10=7=12=10=7=12=10=7=12=10=7-|
|-x-x---x-x---x-x----------------------------------------------------------|
|-x-x---x-x---x-x----------------------------------------------------------|
|--------------------------------------------------------------------------|
|--------------------------------------------------------------------------|
|--------------------------------------------------------------------------|

|-13-13\-15-15\-17-17\-18-18\-20-20\-22---w-w-w-\-|
|-------------------------------------------------|
|-------------------------------------------------|
|-------------------------------------------------|
|-------------------------------------------------|
|-------------------------------------------------|

|------------------------------------------------|
|------------------------------------------------|
|------------------------------------------------|
|-0---3---5---6---7--10--12---10---7---6---5--3--|
|-0---3---5---6---7--10--12---10---7---6---5--3--|
|-0---3---5---6---7--10--12---10---7---6---5--3--|

|------------------------------------------------|
|------------------------------------------------|
|------------------------------------------------|
|-0---3---5---6---7--10--12---10---7---6---5--3--|
|-0---3---5---6---7--10--12---10---7---6---5--3--|
|-0---3---5---6---7--10--12---10---7---6---5--3--|

|-----------------|-----------------------|
|-----------------|-----------------------|
|-----------------|-----------------------|
|-0---w--w--w--w--|-12--w--w--w--w--w--w--|
|-0---w--w--w--w--|-12--w--w--w--w--w--w--|
|-0---w--w--w--w--|-12--w--w--w--w--w--w--|

|-----------------------------------------------------|
|-9-7-0-9-7-0-9-7-0-9-7-0-10-8-0-10-8-0-10-8-0-10-8-0-|
|-----------------------------------------------------|
|-----------------------------------------------------|
|-----------------------------------------------------|
|-----------------------------------------------------|

|--------------------------------|
|-12/=/=/=/=/=/=/=/=20=b=(22)=\--|
|--------------------------------|
|--------------------------------|
|--------------------------------|
|--------------------------------|

The song just simply fades out, so this is how I end it after the last verse.

 Verse (x4)
|-------------------------------|------------------------------|
|-------------------------------|------------------------------|
|-------------------------------|------------------------------|
|-0-0-3\2-0-0-5\3-0-0-7--6\5--3-|-0-0-3\2-0-0-5\3-0-0-7--6-3---|
|-0-0-3\2-0-0-5\3-0-0-7--6\5--3-|-0-0-3\2-0-0-5\3-0-0-7--6-3---|
|-0-0-3\2-0-0-5\3-0-0-7--6\5--3-|-0-0-3\2-0-0-5\3-0-0-7--6-3---|
pm. .     . .     . .             . .     . .     . .      |
                                           On 4th time, fermata this chord.

 Ending
|----------------|
|----------------|
|----------------|
|-(3)--/(12)\-0--|
|-(3)--/(12)\-0--|
|-(3)--/(12)\-0--|

Legend:
=   Tremolo Picking
/   Slide Up
\   Slide Down
(0) Tied Note
pm  Palm Muting
b   Bend
w   Whammy Bar
x   Muted Note
h   Hammer On
p   Pull Off
v   Vibrato
            
Hard to play? Try these video lessons and learn fast. | Correct




comments powered by Disqus
↑ Back to top | Tablatures and chords are parodies/interpretations of the original songs. You may use it for private study, scholarship, research or language learning purposes only