» » »

Rammstein, Links 2-3-4 Easy Tabs (ver.1)

Artists:  A B C D E F G H I J K L M N O P Q R S T U V W X Y Z # 

Links 2-3-4 Easy Tabs (ver.1)

Rammstein Tabs
Rating:
0/5 (0 votes)
Links 2-3-4  Easy lessons Tabs too difficult? Try these video lessons and learn fast
                


INTRO
----------------------------------------------   
----------------------------------------------
----------------------------------------------
------------2---------2---------2------------8
------------2---------2---------2------------8
-------00---0--00-----0--00-----0----3---5---6    < x 3 

-------------------------------------------------    
-------------------------------------------------
-------------------------------------------------
------------2---------2---------2--------5555555-
------------2---------2---------2--------5555555-
-------00---0----00---0---00----0--------3333333-  

----------------------------------------------    
----------------------------------------------
----------------------------------------------
------------2---------2---------2------------8
------------2---------2---------2------------8
-------00---0---00----0--00-----0----3---5---6    < x 2


VERSES
I really don&#8217;t know if there&#8217;s a guitar in this part... but you can play this with palm mute

------------------------------------------------    
------------------------------------------------
------------------------------------------------
------------------------------------------------
------------------------------------------------
-----------00--0----00--0----00--0-----3---5---6    P.M

CHORUS

----------------------------------------------    
----------------------------------------------
----------------------------------------------
------------2---------2---------2------------8
------------2---------2---------2------------8
-------00---0---00----0--00-----0----3---5---6    < x 4






BRIDGE

---------x-- ~ ------ ~ ------ ~ ------------------    
---------x-- ~ ------ ~ ------ ~ ------------------
---------x-- ~ ------ ~ ------ ~ ------------------
---------2-- ~ ---5-- ~ ---7-- ~ ----8888----------
---------2-- ~ ---5-- ~ ---7-- ~ ----8888----------
---------0-- ~ ---3-- ~ ---5-- ~ ----6666----------    < x 2

ACOUSTIC 
Play this on your acoustic guitar or you can put the effect

----------------------------------------------   
----------------------------------------------
----------------------------------------------
------------2---------2---------2------------8
------------2---------2---------2------------8
-------00---0---00----0--00-----0----3---5---6    < x 9


CHORUS

------------x---------x---------x-------------   
------------x---------x---------x-------------
------------x---------x---------x-------------
------------2---------2---------2------------8
------------2---------2---------2------------8
-------00---0---00----0--00-----0----3---5---6    < x 4

SOLO 
----------7-8-10-12-10-8-7-8-7-8-10-12-10-8-7-8--------------------
-----------------------------------------------------9 ~ ----------

---7-8-10-12-10-8-7-8-7-8-10-12-10-8-7-8---12 ~ -------------------




--------------7-8-10-12-10-8-7-8-7-8-10-12-10-8-7-8----------------
-----------------------------------------------------9 ~ ----------

---7-8-10-12-10-8-7-8-7-8-10-12-10-8-7-8---12 ~~~~ ----------------

OUTRO

---------x-- ~ ------ ~ ------ ~ ------------------    
---------x-- ~ ------ ~ ------ ~ ------------------
---------x-- ~ ------ ~ ------ ~ ------------------
---------2-- ~ ---5-- ~ ---7-- ~ ----8888----------
---------2-- ~ ---5-- ~ ---7-- ~ ----8888----------
---------0-- ~ ---3-- ~ ---5-- ~ ----6666----------    < x 4

key &#8211; 
      ~ ( let ring )

artist : ramnstein
album : mutter
song : links 234
            
Submit corrections

comments powered by Disqus
↑ Back to top | Rammstein Tabs for Links 2-3-4 Easy. Lyrics for acoustic guitar and electric guitar. Tablatures and chords are parodies/interpretations of the original songs. You may use it for private study, scholarship, research or language learning purposes only