» » »

Kokain Tabs (ver.3)

Artists:  A B C D E F G H I J K L M N O P Q R S T U V W X Y Z # 

Kokain Tabs (ver.3)

Rammstein
Rating:
0/5 (0 votes)

Hard to play? Try these video lessons and learn fast.
                Tuning: Drop D
all the other tabs weren't exactly right, so i tabbed it out the right way!

Main Riff
e|--------------------------------|
b|--------------------------------|x3 then
g|--------------------------------|
d|--2--2-2-2--2-2-2-2-2--2-2-2\3--|
a|--2--2-2-2--2-2-2-2-2--2-2-2\3--|
d|--2--2-2-2--2-2-2-2-2--2-2-2\3--|
      [pm ]  [   pm  ]  [pm ]
e|------------------------------|
b|------------------------------|
g|------------------------------|
d|--2--2-2-2--2-2-2-2-0--0-0-0--|
a|--2--2-2-2--2-2-2-2-0--0-0-0--|
d|--2--2-2-2--2-2-2-2-0--0-0-0--|
      [pm ]  [   pm  ]  [pm ]
            
Hard to play? Try these video lessons and learn fast. | Correct




comments powered by Disqus
↑ Back to top | Tablatures and chords are parodies/interpretations of the original songs. You may use it for private study, scholarship, research or language learning purposes only