>
 >
Ich Tu Dir Weh 2

Ich Tu Dir Weh 2 Guitar Tabs

Rammstein - Ich Tu Dir Weh 2 chords, tabs, tablatures, lyrics

Guitar lessons | Add/correct | Request | Top 50 tabs Artists:  A B C D E F G H I J K L M N O P Q R S T U V W X Y Z 0-9

Ich Tu Dir Weh 2 Guitar Tabs – Rammstein

CD, Sheet music, Poster

Do you like Ich Tu Dir Weh 2? Share with your friends now
Bass TabsChordsTabsTabs v2Tabs v3Ukulele
-------------------------------------------------------------------------------
                           RAMMSTEIN - ich tu dir weh
-------------------------------------------------------------------------------

Tuning: drop D





INTRO KEYBOARDS


 intro - guitar 1 & 2
e|--------------|
b|--------------|
G|--------------|x 4
D|-0--0--0-0-0--|
A|-0--0--0-0-0--|
D|-0--0--0-0-0--|

  main riff - guitar 1 & 2
e|---------------------------------------|
b|---------------------------------------|
G|---------------------------------------|x 6
D|--0X0X000-0X0X000-0X0X000-5-3-0-6-5-3--|
A|--0X0X000-0X0X000-0X0X000-5-3-0-6-5-3--|
D|--0X0X000-0X0X000-0X0X000-5-3-0-6-5-3--|
p.m.    ...     ...     ...

 verse - guitar 1
e|---------------------------------|           |
b|---------------------------------|           |
G|--7-7-----7-7-----7-7-----5-5-5--|           |
D|--5-5-----5-5-----5-5-----3-3-3--|           |
A|--5-5-----5-5-----5-5-----3-3-3--|           |
D|------000-----000-----000--------|           |
        ...     ...     ...                    |x 5
 verse - guitar 2                              |
e|------------------------------------------|  |
b|------------------------------------------|  |
G|------------------------------------------|  |
D|--0--0------0--0------0--0------0--0--0---|  |
A|--12-12-----12-12-----12-12-----15-15-15--|  |
D|--0--0--000-0--0--000-0--0--000-0--0--0---|  |
          ...       ...       ...
 verse - guitar 1 & 2
e|----------------------------------------------------------------------------|
b|----------------------------------------------------------------------------|
G|--7-7-----7-7-----9-9-----9-9------10-10-----10-10-----12-12-----12-12------|
D|--5-5-----5-5-----7-7-----7-7------8--8------8--8------10-10-----10-10------|x2
A|--5-5-----5-5-----7-7-----7-7------8--8------8--8------10-10-----10-10------|
D|------000-----000-----000------000-------000-------000-------000-------000--|
        ...     ...     ...      ...       ...       ...       ...       ...

 chorus - guitar 1 & 2            end g. 1   end g. 2
e|--------------------------------|---------|--------|
b|--------------------------------|---------|--------|
G|--7-----------------------------|---------|--9-----|x 1
D|--7----3----3----5----8----0----|--7------|--7-----|
A|--5----3----3----5----8----0----|--7------|--7-----|
D|-------3----3----5----8----0----|--7------|--------|

  main riff - guitar 1 & 2
e|---------------------------------------|     
b|---------------------------------------|     
G|---------------------------------------|     
D|--0X0X000-0X0X000-0X0X000-5-3-0-6-5-3--|x 2    
A|--0X0X000-0X0X000-0X0X000-5-3-0-6-5-3--|     
D|--0X0X000-0X0X000-0X0X000-5-3-0-6-5-3--|     
p.m.    ...     ...     ...                    

verse - guitar 1
e|---------------------------------|           |
b|---------------------------------|           |
G|--7-7-----7-7-----7-7-----5-5-5--|           |
D|--5-5-----5-5-----5-5-----3-3-3--|           |
A|--5-5-----5-5-----5-5-----3-3-3--|           |
D|------000-----000-----000--------|           |
        ...     ...     ...                    |x 5     
 verse - guitar 2                              |
e|------------------------------------------|  |
b|------------------------------------------|  |
G|------------------------------------------|  |
D|--0--0------0--0------0--0------0--0--0---|  |
A|--12-12-----12-12-----12-12-----15-15-15--|  |
D|--0--0--000-0--0--000-0--0--000-0--0--0---|  |
          ...       ...       ...
 verse - guitar 1 & 2
e|----------------------------------------------------------------------------|
b|----------------------------------------------------------------------------|
G|--7-7-----7-7-----9-9-----9-9------10-10-----10-10-----12-12-----12-12------|
D|--5-5-----5-5-----7-7-----7-7------8--8------8--8------10-10-----10-10------|x2
A|--5-5-----5-5-----7-7-----7-7------8--8------8--8------10-10-----10-10------|
D|------000-----000-----000------000-------000-------000-------000-------000--|
        ...     ...     ...      ...       ...       ...       ...       ...

 chorus - guitar 1 & 2            end g. 1   end g. 2
e|--------------------------------|---------|--------|
b|--------------------------------|---------|--------|
G|--7-----------------------------|---------|--9-----|x 3
D|--7----3----3----5----8----0----|--7------|--7-----|
A|--5----3----3----5----8----0----|--7------|--7-----|
D|-------3----3----5----8----0----|--7------|--------|

 intro - guitar 1 & 2
e|--------------|
b|--------------|
G|--------------|x 4
D|-0--0--0-0-0--|
A|-0--0--0-0-0--|
D|-0--0--0-0-0--|

 chorus - guitar 1 & 2            end g. 1   end g. 2
e|--------------------------------|---------|--------|
b|--------------------------------|---------|--------|
G|--7-----------------------------|---------|--9-----|x 2
D|--7----3----3----5----8----0----|--7------|--7-----|
A|--5----3----3----5----8----0----|--7------|--7-----|
D|-------3----3----5----8----0----|--7------|--------|


  main riff - guitar 1 & 2
e|---------------------------------------|     
b|---------------------------------------|     
G|---------------------------------------|     
D|--0X0X000-0X0X000-0X0X000-5-3-0-6-5-3--|x 1    
A|--0X0X000-0X0X000-0X0X000-5-3-0-6-5-3--|     
D|--0X0X000-0X0X000-0X0X000-5-3-0-6-5-3--|     
p.m.    ...     ...     ...                   







| /  slide up
| \  slide down
| h  hammer-on
| p  pull-off
| ~  vibrato
| +  harmonic
| x  Mute note
===============================================================================





Comments


Popular Rammstein tabs & chords
Bestrafe Mich 3 Bass Tabs
Buck Dich 2 Bass Tabs
Du Hast 4 Bass Tabs
Links 2 Bass Tabs
Tier 3 Bass Tabs
Ohne Dich Chords
Mutter Drum Tabs
Du Riechst So Gut (Solo Ver 3) Tabs
Keine Lust 3 Tabs
Sonne 4 Tabs


Song lyrics



↑ Back to top | Tablatures and chords are parodies/interpretations of the original songs. You may use it for private study, scholarship, research or language learning purposes only
© 2014 AZChords.com Contact us | Privacy policy | DMCA | Add/correct tabs | Request tabs | Top 50 tabs