» » »

FeuerräDer Tabs (ver.2)

Artists:  A B C D E F G H I J K L M N O P Q R S T U V W X Y Z # 

FeuerräDer Tabs (ver.2)

Rammstein
Rating:
0/5 (0 votes)

Hard to play? Try these video lessons and learn fast.
                A dot below a chord denotes palm muting.
Two guitarists and a wah pedal are needed to play this song properly.

Main Riff
E|----------------------------------| 
B|----------------------------------|
G|----------------------------------|
D|--3---0---0-0-0---1---0---0-0-0---|
A|--3---0---0-0-0---1---0---0-0-0---|
D|--3---0---0-0-0---1---0---0-0-0---|
            . . .           . . .
Riff 1
E|------5---------4-----------------6---------5-------|
B|----6-------------5-------------7-----------4-------|
G|--7-----------------6---------8-------------^-------|
D|---------------------------------------------use wah here
A|----------------------------------------------------|
D|----------------------------------------------------|

E|------6---------5-----------------8---------22-----|
B|----7-------------6-------------9--------------22--|
G|--8-----------------7---------10-------------------|
D|---------------------------------------------------|
A|---------------------------------------------------|
D|---------------------------------------------------|

Rhythm Guitarist (During Riff 1)
E|-----------------------------------------------------------------|
B|-----------------------------------------------------------------|
G|-----------------------------------------------------------------|
D|-1-1-1-1-1-1-3---0-0-0-0-0-0-0-0-1-1-1-1-1-1-3---0-0-0-1-0-0-0-0-|
A|-1-1-1-1-1-1-3---0-0-0-0-0-0-0-0-1-1-1-1-1-1-3---0-0-0-1-0-0-0-0-|
D|-1-1-1-1-1-1-3---0-0-0-0-0-0-0-0-1-1-1-1-1-1-3---0-0-0-1-0-0-0-0-|
     . . . . .       . . . . . . .   . . . . .       . .     . . .

Riff2 
E|----------------------------|--------------------------------------|
B|----------------------------|--------------------------------------|
G|----------------------------|--------------------------------------|
D|----------------------------|--------------------------------------|
A|--12-12-12-12-12-12-10-10--7|-7--7--7--7--7--7--7------------------|
D|--12-12-12-12-12-12-10-10--7|-7--7--7--7--7--7--7------------------|
                              ^The fourth time played it is cut off here

Solo (2:34) Play Riff 2 During Solo
E|------------------------------------------------------------|
B|-------------------18-17-15/17-17---------------------------|
G|-------17/19-17-15------------------------------------------|
D|---19-----------------------------17/19-19--19\17\15/17/19~~|
A|------------------------------------------------------------|
D|--------------------------------------------------vibrato^--|

E|-----------------------------------------------------------|
B|-----------------------------------------------------------|
G|-----------------------------------------------------------|
D|---15p14-14--15--15--17---15p14--15p14---------------------|
A|---------------------------------------15--15--------------|
D|-----------------------------------------------------------|

E|-----------------------------------------------------------|
B|-----------------------------------------------------------|
G|-----------------------------------------------------------|
D|--14--14--15--15--17--17--15--15--14-----------------------|
A|------------------------------------15--15--15----17--17---|
D|-----------------------------------------------------------|
            
Hard to play? Try these video lessons and learn fast. | Correct




comments powered by Disqus
↑ Back to top | Tablatures and chords are parodies/interpretations of the original songs. You may use it for private study, scholarship, research or language learning purposes only