» » »

Rammstein, Engel Tabs (ver.1)

Artists:  A B C D E F G H I J K L M N O P Q R S T U V W X Y Z # 

Engel Tabs (ver.1)

Rammstein Tabs
 Rating:
4/5 (4 votes)
Engel lessons Tabs too difficult? Try these video lessons and learn fast
1
                this is a really easy song 2 play, and this is my first tab, but im pretty sure this is like almost 100% rite

0's are palm muted







Main Riff


e|----------------------------------------------  3x    
b|----------------------------------------------
g|----------------------------------------------
d|----------------------------------------------
a|--3h5--------6p5---------3h5--3h5--6p5--------
d|--------0-0---------0-0---------------------


e|------------------------------------------------  1x
b|------------------------------------------------
g|------------------------------------------------
d|------------------------------------------------
a|--3h5-------6p5--------3h5--3h5--3-3-3-------------
d|--------0-0--------0-0-----------3-3-3------------
            
Submit corrections

comments powered by Disqus
↑ Back to top | Rammstein Tabs for Engel. Lyrics for acoustic guitar and electric guitar. 1 Tablatures and chords are parodies/interpretations of the original songs. You may use it for private study, scholarship, research or language learning purposes only