» » »

Eifersucht Bass tabs (ver.1)

Artists:  A B C D E F G H I J K L M N O P Q R S T U V W X Y Z # 

Eifersucht Bass tabs (ver.1)

Rammstein
Rating:
0/5 (0 votes)

Hard to play? Try these video lessons and learn fast.
                (1)
Rammstein
Eifersucht
Sehnsucht

tune low E to D
Intro/Verse/Chorus
G------------------------------------------
D------------------------------------------
A--------------------3-----------------------
E--2-2-3-3-2-2-3-3-2-------------------------

I dont know what to call this part, but you'll know when it comes in
G--------------------------------------------
D--------------------------------------------
A--------------------------------------------
E--0-0-0-1-2-0-0-0-1-2-----------------------


Optional Keyboard Part
G---------------------------------------------
D--0-0-0-0-0-0-2-3-0-0-0-0-0------------------
A----------------------------3-0----------------
E---------------------------------------------
            
Hard to play? Try these video lessons and learn fast. | Correct




comments powered by Disqus
↑ Back to top | Tablatures and chords are parodies/interpretations of the original songs. You may use it for private study, scholarship, research or language learning purposes only