» » »

Du Hast Tabs (ver.3)

Artists:  A B C D E F G H I J K L M N O P Q R S T U V W X Y Z # 

Du Hast Tabs (ver.3)

Rammstein
Rating:
0/5 (0 votes)

Hard to play? Try these video lessons and learn fast.
                this is Rammsteins best song, the one and only.
I used five minutes to figure out this tab.

just before "Friends"

e|---------------------------------------------| intro x3
B|---------------------------------------------|
G|---------------------------------------------|
D|-7--5--2-2-2-2-2-2-2-7--5--2-2-2-2-2-2-2-2-2-|
A|-7--5--2-2-2-2-2-2-2-7--5--2-2-2-2-2-2-2-2-2-|
D|-7--5--2-2-2-2-2-2-2-7--5--2-2-2-2-2-2-2-2-2-|
         """"""PM"""""       """"""""PM"""""""
                                             Fourth time
e|-------------------------|
B|-------------------------|
G|-------------------------|
D|-5--7--2-2-2-2-2-2-2-2-2-|
A|-5--7--2-2-2-2-2-2-2-2-2-|
D|-5--7--2-2-2-2-2-2-2-2-2-|
         """"""""PM"""""""
Du, Du hast, Du hast mich x4

Intro once again.

Du, du hast, du hast mich, du hast mich
du hast mich gefragt
du hast mich gefragt
und ich habe nicht gesagt

e|----------------------------------------------| chorous
B|----------------------------------------------|
G|----------------------------------------------|
D|-7--5--2-2-2-2-2-2-2--7--5--2-2-2-2-2-2-2-2-2-|
A|-7--5--2-2-2-2-2-2-2--7--5--2-2-2-2-2-2-2-2-2-|
D|-7--5--2-2-2-2-2-2-2--7--5--2-2-2-2-2-2-2-2-2-|
         """"""PM"""""        """"""""PM"""""""
e|----------------------------------------------|
B|----------------------------------------------|
G|----------------------------------------------|
D|-5--7--7-7-7-7-7-7-7-7--5--7--7-7-7-7-7-7-7-7-|
A|-5--7--7-7-7-7-7-7-7-7--5--7--7-7-7-7-7-7-7-7-|
D|-5--7--7-7-7-7-7-7-7-7--5--7--7-7-7-7-7-7-7-7-|
      """"""""PM"""""""         """"""""PM"""""

e|--------------------------------------------------|
B|--------------------------------------------------|
G|--------------------------------------------------|
D|-7--10--10-10-10-10-10-10-10-10-9-9-9-9-9-9-9-9-9-|
A|-7--10--10-10-10-10-10-10-10-10-9-9-9-9-9-9-9-9-9-|
D|-7--10--10-10-10-10-10-10-10-10-9-9-9-9-9-9-9-9-9-|
          """"""""""PM""""""""      """"""PM"""""

   NEIN!                             NEIN!
e|----------------------------------------------| 
B|----------------------------------------------|
G|----------------------------------------------|
D|-7--5--2-2-2-2-2-2-2--7--5--2-2-2-2-2-2-2-2-2-|
A|-7--5--2-2-2-2-2-2-2--7--5--2-2-2-2-2-2-2-2-2-|
D|-7--5--2-2-2-2-2-2-2--7--5--2-2-2-2-2-2-2-2-2-|
         """""PM""""""        """"""""PM"""""""

figure out the way the pieces are set up in the song for yourselfs...
            
Hard to play? Try these video lessons and learn fast. | Correct




comments powered by Disqus
↑ Back to top | Tablatures and chords are parodies/interpretations of the original songs. You may use it for private study, scholarship, research or language learning purposes only