» » »

Rammstein, Der Meister Tabs (ver.2)

Artists:  A B C D E F G H I J K L M N O P Q R S T U V W X Y Z # 

Der Meister Tabs (ver.2)

Rammstein Tabs
 Rating:
4/5 (4 votes)
Der Meister lessons Tabs too difficult? Try these video lessons and learn fast
                Band:    Rammstein

Standard tunning

Intro Riff
|----------------------------------------------|
|----------------------------------------------|
|------9/10------9/10----9/10------9/10----8/9-|
|------9/10------9/10----9/10------9/10----8/9-|8X
|------7/-8------7/-8----7/-8------7/-8----6/7-|
|-0000------0000------00------0000------00-----|
  ....      ....      ..      ....      ..

Riff1
|---------------------|
|---------------------|
|-9-7-9-7-9-7-9--7/10-|
|-9-7-9-7-9-7-9--7/10-|
|-7-5-7-5-7-5-7--5/-8-|3X
|--0-0-0-0-0-0-00-----|
   . . . . . . ..

Main Riff
|---------------------------------------|
|---------------------------------------|
|------9/10------9/10----9/10------9/10-|
|------9/10------9/10----9/10------9/10-|3X
|------7/-8------7/-8----7/-8------7/-8-|
|-0000------0000------00------0000------|
  ....      ....      ..      ....      


Intro Riff
|----------------------------------------------|
|----------------------------------------------|
|------9/10------9/10----9/10------9/10----8/9-|
|------9/10------9/10----9/10------9/10----8/9-|4X
|------7/-8------7/-8----7/-8------7/-8----6/7-|
|-0000------0000------00------0000------00-----|
  ....      ....      ..      ....      ..

Main Riff
|---------------------------------------|
|---------------------------------------|
|------9/10------9/10----9/10------9/10-|
|------9/10------9/10----9/10------9/10-|4X
|------7/-8------7/-8----7/-8------7/-8-|
|-0000------0000------00------0000------|
  ....      ....      ..      ....      

Riff1
|---------------------|
|---------------------|
|-9-7-9-7-9-7-9--7/10-|
|-9-7-9-7-9-7-9--7/10-|
|-7-5-7-5-7-5-7--5/-8-|3X
|--0-0-0-0-0-0-00-----|
   . . . . . . ..

Main Riff
|---------------------------------------|
|---------------------------------------|
|------9/10------9/10----9/10------9/10-|
|------9/10------9/10----9/10------9/10-|3X
|------7/-8------7/-8----7/-8------7/-8-|
|-0000------0000------00------0000------|
  ....      ....      ..      ....  

Intro Riff
|----------------------------------------------|
|----------------------------------------------|
|------9/10------9/10----9/10------9/10----8/9-|
|------9/10------9/10----9/10------9/10----8/9-|4X
|------7/-8------7/-8----7/-8------7/-8----6/7-|
|-0000------0000------00------0000------00-----|
  ....      ....      ..      ....      ..

Main Riff
|---------------------------------------|
|---------------------------------------|
|------9/10------9/10----9/10------9/10-|
|------9/10------9/10----9/10------9/10-|4X
|------7/-8------7/-8----7/-8------7/-8-|
|-0000------0000------00------0000------|
  ....      ....      ..      ....  

|---------------------|
|---------------------|
|-9-7-9-7-9-7-9--7/10-|
|-9-7-9-7-9-7-9--7/10-|
|-7-5-7-5-7-5-7--5/-8-|2X
|--0-0-0-0-0-0-00-----|
   . . . . . . ..

|--------------------------|
|--------------------------|
|-11-9-11-9-11-9-11---9/12-|
|-11-9-11-9-11-9-11---9/12-|
|--9-7--9-7--9-7--9---7/10-|2X
|---0-0--0-0--0-0---00-----|
    . .  . .  . .   ..

Intro Riff
|----------------------------------------------|
|----------------------------------------------|
|------9/10------9/10----9/10------9/10----8/9-|
|------9/10------9/10----9/10------9/10----8/9-|4X
|------7/-8------7/-8----7/-8------7/-8----6/7-|
|-0000------0000------00------0000------00-----|
  ....      ....      ..      ....      ..

Main Riff
|---------------------------------------|
|---------------------------------------|
|------9/10------9/10----9/10------9/10-|
|------9/10------9/10----9/10------9/10-|4X
|------7/-8------7/-8----7/-8------7/-8-|
|-0000------0000------00------0000------|
  ....      ....      ..      ....  

End
|-----------------------|
|-----------------------|
|-9-7-9-7-9-7-9--7/10-9-|
|-9-7-9-7-9-7-9--7/10-9-|
|-7-5-7-5-7-5-7--5/-8-7-|
|--0-0-0-0-0-0-00-------|
   . . . . . . ..

Its so hard to post tabs so when i do get one allowed in give it 5*!
            
Submit corrections

comments powered by Disqus
↑ Back to top | Rammstein Tabs for Der Meister. Lyrics for acoustic guitar and electric guitar. Tablatures and chords are parodies/interpretations of the original songs. You may use it for private study, scholarship, research or language learning purposes only