» » »

Dalai Lama Bass tabs (ver.1)

Artists:  A B C D E F G H I J K L M N O P Q R S T U V W X Y Z # 

Dalai Lama Bass tabs (ver.1)

Rammstein
Rating:
0/5 (0 votes)

Tabs too difficult? Try these video lessons and learn fast.
                Intro/Chorus (bass starts at 0:49) 

                                                                               
F||-------------------------------|-----------------------------------| 
C||-------------------------------|-----------------------------------| 
G||-------------------------------|-----------------------------------| 
C||---0-0--0-0--0-0-0--0--0-0-6-0-|--0-0--0-0--0-0-0--0--0-0-6-0------| x 8 

Pre-chorus 

F||------------------------------||-----------------------------------| 
C||-----------------------------*||-----------------------------------| 
G||-----------------------------*||-----------------------------------| 
C||--0-0--0-0--0-0-0--0--0-0-6---||--8-8-8-8-8-8-8-8-8-8-8-8-8-8-7-7--| 


                                                                   
F||----------------------------------|--------------------------------| 
C||----------------------------------|--------------------------------| 
G||------------------0-0-0-0-0-0-0-0-|--------------------------------| 
C||--5-5-5-5-5-5-5-5-----------------|--0-0--0-0--0-0-0--0--0-0-6-0---| 


                                                                   
F||------------------------------|------------------------------------| 
C||------------------------------|------------------------------------| 
G||------------------------------|--1-1-1-1-1-1-1-1-1-1-1-1-1-1-0-0---| 
C||--3-3--3-3--3-3-3--3--3-3-5-3-|------------------------------------| 


                                                                     
F||----------------------------------||-------------------------------| 
C||----------------------------------||*------------------------------| 
G||------------------0-0-0-0-0-0-0-0-||*------------------------------| 
C||--5-5-5-5-5-5-5-5-----------------||---0-0--0-0--0-0-0--0--0-0-6-0-| 

This tab is a peace of cake
            
Tabs too difficult? Try these video lessons and learn fast.


comments powered by Disqus
↑ Back to top | Tablatures and chords are parodies/interpretations of the original songs. You may use it for private study, scholarship, research or language learning purposes only