» » »

Dalai Lama Tabs (ver.2)

Artists:  A B C D E F G H I J K L M N O P Q R S T U V W X Y Z # 

Dalai Lama Tabs (ver.2)

Rammstein
Rating:
0/5 (0 votes)

Hard to play? Try these video lessons and learn fast.
                1st verse [ Clean guitar with light distortion ]
D|-------------------------------------------------------------------|
A|-------------------------------------------------------------------|
F|*------------------------------------------------------------------|
C|*---7-----7-------7---7-------6p5---7-----7-------7---7-------6p5--|
G|--0-5---0-5---0-0-5---5---0-0-6p5-0-5---0-5---0-0-5---5---0-0-6p5--|
C|--0-0---0-0---0-0-0---0---0-0-6p5-0-0---0-0---0-0-0---0---0-0-6p5--|
pm  . .   . .   . . .   .   . .     . .   . .   . . .   .   . .

D|-------------------------------------------------------------|
A|-------------------------------------------------------------|
F|------------------------------------------------------------*|
C|----7-----7-------7---7-------6p5---7-----7-------7---7---6-*|x4
G|--0-5---0-5---0-0-5---5---0-0-6p5-0-5---0-5---0-0-5---5---6--|
C|--0-0---0-0---0-0-0---0---0-0-6p5-0-0---0-0---0-0-0---0---6--|
pm  . .   . .   . . .   .   . .     . .   . .   . . .   .


A slightly distorted guitar plays this riff quietly in the background
D|-------------------------------------------------------------------|
A|-------------------------------------------------------------------|
F|*------------------------------------------------------------------|
C|*------------------------------------------------------------------|
G|----5-----5-------5---5-------------5-----5-------5---5------------|
C|--0-----0-----0-0---------0-0-6p5-0-----0-----0-0---------0-0-6p5--|

D|-------------------------------------------------------------|
A|-------------------------------------------------------------|
F|------------------------------------------------------------*|
C|------------------------------------------------------------*|x4
G|----5-----5-------5---5-------------5-----5-------5---5------|
C|--0-----0-----0-0---------0-0-6p5-0-----0-----0-0---------6--|


Heavy part [ Heavy distortion ]
D|-------------------------------------------------------------------|
A|-------------------------------------------------------------------|
F|*------------------------------------------------------------------|
C|*-----------------------------6p5-----------------------------6p5--|
G|--0-0---0-0---0-0-0---0---0-0-6p5-0-0---0-0---0-0-0---0---0-0-6p5--|
C|--0-0---0-0---0-0-0---0---0-0-6p5-0-0---0-0---0-0-0---0---0-0-6p5--|
pm  . .   . .   . . .   .   . .     . .   . .   . . .   .   . .

D|-------------------------------------------------------------|
A|-------------------------------------------------------------|
F|------------------------------------------------------------*|
C|------------------------------6p5-------------------------6-*|x2
G|--0-0---0-0---0-0-0---0---0-0-6p5-0-0---0-0---0-0-0---0---6--|
C|--0-0---0-0---0-0-0---0---0-0-6p5-0-0---0-0---0-0-0---0---6--|


2nd verse is similar, but the clean part is only played 2 times.


Bridge [ With WAH ]
Solo guitar
D|--------------------------------------------------|
A|--------------------------------------------------|
F|-14-14-14-14-14-14-14-14-13-13-13-13-13-13-13-13--|
C|--x--x--x--x--x--x--x--x--x--x--x--x--x--x--x--x--|
G|-12-12-12-12-12-12-12-12-11-11-11-11-11-11-11-11--|
C|--------------------------------------------------|

D|--------------------------------------------------|
A|--------------------------------------------------|
F|-14-14-14-14--7--7--7--7--7--7--7--7--7--7--7--7--|
C|--x--x--x--x--x--x--x--x--x--x--x--x--x--x--x--x--|
G|-12-12-12-12--5--5--5--5--5--5--5--5--5--5--5--5--|
C|--------------------------------------------------|

Rhythm guitars
D|--------------------------------------------------|
A|--------------------------------------------------|
F|--------------------------------------------------|
C|--8--8--8--8--8--8--8--8--8--8--8--8--8--8--7--7--|
G|--8--8--8--8--8--8--8--8--8--8--8--8--8--8--7--7--|
C|--8--8--8--8--8--8--8--8--8--8--8--8--8--8--7--7--|

D|--------------------------------------------------|
A|--------------------------------------------------|
F|--------------------------------------------------|
C|--5--5--5--5--5--5--5--5--7--7--7--7--7--7--7--7--|
G|--5--5--5--5--5--5--5--5--7--7--7--7--7--7--7--7--|
C|--5--5--5--5--5--5--5--5--7--7--7--7--7--7--7--7--|


Fill (02.25, 03.40)
D|-------------------------------------------------------------------|
A|-------------------------------------------------------------------|
F|-------------------------------------------------------------------|
C|------------------------------6p5-----------------------------5p3--|
G|--0-0---0-0---0-0-0---0---0-0-6p5-3-3---3-3---3-3-3---3---3-3-5p3--|
C|--0-0---0-0---0-0-0---0---0-0-6p5-3-3---3-3---3-3-3---3---3-3-5p3--|
pm  . .   . .   . . .   .   . .     . .   . .   . . .   .   . .


Chorus
D|-------------------------------------------------------------------|
A|-------------------------------------------------------------------|
F|*------------------------------------------------------------------|
C|*-----------------------------6p5-----------------------------6p5--|
G|--0-0---0-0---0-0-0---0---0-0-6p5-0-0---0-0---0-0-0---0---0-0-6p5--|
C|--0-0---0-0---0-0-0---0---0-0-6p5-0-0---0-0---0-0-0---0---0-0-6p5--|
pm  . .   . .   . . .   .   . .     . .   . .   . . .   .   . .

D|-------------------------------------------------------------|
A|-------------------------------------------------------------|
F|------------------------------------------------------------*|
C|------------------------------6p5-------------------------6-*|x2
G|--0-0---0-0---0-0-0---0---0-0-6p5-0-0---0-0---0-0-0---0---6--|
C|--0-0---0-0---0-0-0---0---0-0-6p5-0-0---0-0---0-0-0---0---6--|
pm  . .   . .   . . .   .   . .     . .   . .   . . .   .
            
Hard to play? Try these video lessons and learn fast. | Correct




comments powered by Disqus
↑ Back to top | Tablatures and chords are parodies/interpretations of the original songs. You may use it for private study, scholarship, research or language learning purposes only