» » »

Rammstein, Dalai Lama Tabs (ver.1)

Artists:  A B C D E F G H I J K L M N O P Q R S T U V W X Y Z # 

Dalai Lama Tabs (ver.1)

Rammstein Tabs
 Rating:
4/5 (4 votes)
Dalai Lama lessons Tabs too difficult? Try these video lessons and learn fast
                
	(Drop D tuning)

. = Palm Mute
P = Pull off


Intro (Clean)

e|-----------------------|
B|-----------------------|
G|-----------------------|
D|-----------------------| x3
A|--------5---5---5-8p5--|
E|--0-0-0-0-0-0-0-0-0-0--|
    . . . . . . . . 


e|---------------------|
B|---------------------|
G|---------------------|
D|------------------3--|
A|--------5---5---5-5--|
E|--0-0-0-0-0-0-0-0----|
    . . . . . . . .

Repeat the hole intro 4 times

Verse (Slightly distortion)

Guitar 1,2


e|-------------------------|
B|-------------------------|
G|-------------------------|
D|-------------------------| x3
A|--0-0-0-0-0-0-0-0-0-4p0--|
E|--0-0-0-0-0-0-0-0-0-4p0--|
    . . . . . . . . .

e|-----------------------|
B|-----------------------|
G|-----------------------|
D|-----------------------|
A|--0-0-0-0-0-0-0-0-0-4--|
E|--0-0-0-0-0-0-0-0-0-4--|
    . . . . . . . . .

Repeat to times

e|-----------------------|
B|-----------------------|
G|-----------------------|
D|-----------------------|
A|--------5---5---5-8p5--|
E|--0-0-0-0-0-0-0-0-0-0--|
    . . . . . . . . 
			
e|---------------------|
B|---------------------|
G|---------------------|
D|------------------3--|
A|--------5---5---5-5--|
E|--0-0-0-0-0-0-0-0----|
    . . . . . . . .


| Intro 4 times
| Verse 2 times

Bridge (Clean)
  Guitar 1
e|---------------------------|
B|--8-8-8-8-7-7-5-5-5-5-7-7--|
G|--7-7-7-7-6-6-4-4-4-4-6-6--|
D|--5-5-5-5-4-4-2-2-2-2-4-4--|
A|---------------------------|
E|---------------------------|
 |Guitar 2		     |
e|---------------------------|
B|---------------------------|
G|---------------------------|
D|---------------------------|
A|---------------------------|
E|--5-5-5-5-4-4-2-2-2-2-4-4--|
    . . . . . . . . . .

Verse 2
e|-------------------------|
B|-------------------------|
G|-------------------------|
D|-------------------------|
A|--0-0-0-0-0-0-0-0-0-4p0--|
E|--0-0-0-0-0-0-0-0-0-4p0--|
    . . . . . . . . .

e|-------------------------|
B|-------------------------|
G|-------------------------|
D|-------------------------|
A|--3-3-3-3-3-3-3-3-3-6----|
E|--3-3-3-3-3-3-3-3-3-6----|
    . . . . . . . . .

| Bridge

Verse 3
e|-------------------------|
B|-------------------------|
G|-------------------------|
D|-------------------------|
A|--0-0-0-0-0-0-0-0-0-4p0--|
E|--0-0-0-0-0-0-0-0-0-4p0--|
    . . . . . . . . .

e|-------------------------|
B|-------------------------|
G|-------------------------|
D|-------------------------|
A|--3-3-3-3-3-3-3-3-3-6----|
E|--3-3-3-3-3-3-3-3-3-6----|
    . . . . . . . . .

e|-------------------------|
B|-------------------------|
G|-------------------------|
D|-------------------------|
A|--0-0-0-0-0-0-0-0-0-4p0--|
E|--0-0-0-0-0-0-0-0-0-4p0--|
    . . . . . . . . .

e|-----------------------|
B|-----------------------|
G|-----------------------|
D|-----------------------|
A|--0-0-0-0-0-0-0-0-0-3--|
E|--0-0-0-0-0-0-0-0-0-3--|
    . . . . . . . . .
 Repeat 2 times

| Intro 	2x
| Verse 	2x
| Bridge 
| Verse 2
| Bridge 
| Verse 3	4x
| Verse		2x

e|-----|
B|-----|
G|-----|
D|-----|
A|--0--|
E|--0--|

...
            
Submit corrections

comments powered by Disqus
↑ Back to top | Rammstein Tabs for Dalai Lama. Lyrics for acoustic guitar and electric guitar. Tablatures and chords are parodies/interpretations of the original songs. You may use it for private study, scholarship, research or language learning purposes only