» » »

Buck Dish Tabs (ver.1)

Artists:  A B C D E F G H I J K L M N O P Q R S T U V W X Y Z # 

Buck Dish Tabs (ver.1)

Rammstein
Rating:
0/5 (0 votes)
Tabs too difficult? Try these video lessons and learn fast.
                LIVE AT FAMILY VALUES '98

this is my first tab, i hope it is ok

MAIN RIFF
e|--------------------------------|
B|--------------------------------|
G|-2--1--0--2-1--0-1-2-0----------|
D|-2--1--0--2-1--0-1-2-0----------|
A|-2--1--0--2-1--0-1-2-0----------|
E|--------------------------------|

FILL 
e|------------|
B|------------|
G|-3----------| UP AND DOWN STROKES
D|-3----------|
A|-1----------|
E|------------|



F.T.W.A.R.
            
Tabs too difficult? Try these video lessons and learn fast.


comments powered by Disqus
↑ Back to top | Tablatures and chords are parodies/interpretations of the original songs. You may use it for private study, scholarship, research or language learning purposes only