» » »

Biest Tabs (ver.1)

Artists:  A B C D E F G H I J K L M N O P Q R S T U V W X Y Z # 

Biest Tabs (ver.1)

Rammstein
Rating:
0/5 (0 votes)

Hard to play? Try these video lessons and learn fast.
                Intro 
A#m/A#m/A#m/A#m/A#m/A#m/A#m/Bm 
 x       x       x       x 


Main riff / Intro (distortion) 
e|-----------------------------| 
B|-----------------------------| 
G|-----------------------------| 
D|-----------------------------| 
A|------8-------8-------8\6/9--| 
E|--6-6-6---6-6-6---6-6-6\4/7--| 
pm  . .     . .     . . 


Right after the intro 
G|--10~-(let ring)--| 


Chorus 
e|-------------------------------------| 
B|-------------------------------------| 
G|-------------------------------------| 
D|--8-----10-----11--------------------| 
A|--6------8------9-----7------6----4--| 
E|----------------------5------4----2--| 
pm                             .    . 


________________________________________ 

  

Chords used 

A#m     Bm          A#m     Bm 
e|-6-|  e|-7-|      e|-1-|  e|-2-| 
B|-6-|  B|-7-|      B|-2-|  B|-3-| 
G|-6-|  G|-7-|  or  G|-3-|  G|-4-| 
D|-8-|  D|-9-|      D|-3-|  D|-4-| 
A|-8-|  A|-9-|      A|-1-|  A|-2-| 
E|-6-|  E|-7-|      E|-x-|  E|-x-| 
            
Hard to play? Try these video lessons and learn fast. | Correct




comments powered by Disqus
↑ Back to top | Tablatures and chords are parodies/interpretations of the original songs. You may use it for private study, scholarship, research or language learning purposes only