» » »

Amour Tabs (ver.2)

Artists:  A B C D E F G H I J K L M N O P Q R S T U V W X Y Z # 

Amour Tabs (ver.2)

Rammstein
Rating:
3/5 (4 votes)

Hard to play? Try these video lessons and learn fast.
                
Intro/Chorus;
---------------------------------------------8-----|
---------------------------8---8-9-8-----8---------|
---7-8---0-8-7-8---7-8-0-------------0-------------|
-0---------------0---------------------------------|
---------------------------------------------------|
---------------------------------------------------|
The rythm in the intro is a bit weird, but when you listen
to the song while you play, it should be easy

Verse;
---------------------------------------------------------|
---------------------------------------------------------|
---------------------1-0---------------------------------|
---1---1-------3---------------1---1-----3---------------|
-3---3---3-1-----3-3---------3---3---3-1-----------------|
---------------------------------------------------------|
|_________________________|x3
Play the first part 3 times, as told. A
fter that, do the whole line once.

---------------------------|
---------------------------|
---------------------1-0---|
---1---1-------3-----------|
-3---3---3-1-----3-3-------|
---------------------------|
|________________________|x2
Play the first part twice as told.
After that, do this once;
---------------------------------------------------------|
---------------------------------------------------------|
---------------------1-0-----0---0-----1---1-------------|
---1---1-------3-----------1---1---1-3---3---3-----------|
-3---3---3-1-----3-3-------------------------------------|
---------------------------------------------------------|

The order:
Intro
Verse
Chorus
Verse
Chorusx2
Verse

Yes, the Intro is also played in the Chorus. I can hear it myself.
There are Powertabs the 2nd time the Chorus plays, but I can't get those righ t and 
the Intro plays there, it's alright imo.
And I don't have the Outtro here. PowerTabs isn't something I've learned much yet.
The Verse is also played by Bass, but these are converted for Guitar.
            
Hard to play? Try these video lessons and learn fast. | Correct




comments powered by Disqus
↑ Back to top | Tablatures and chords are parodies/interpretations of the original songs. You may use it for private study, scholarship, research or language learning purposes only