» » »

Amerika Tabs (ver.5)

Artists:  A B C D E F G H I J K L M N O P Q R S T U V W X Y Z # 

Amerika Tabs (ver.5)

Rammstein
Rating:
5/5 (9 votes)

Tabs too difficult? Try these video lessons and learn fast.
                
Tuning: tune the high e to d. (the other strings don't matter unless you're wanting to
the entire song.)
        T        T      T  h h   T      T     T     T     T     T     T
d|13-17-20-13-17-20-1-5-8-0-5-8-12--3-5-8-3-5-8-3-5-8-3-5-8-3-5-7-3-5-7-3-5-T7--|
B|------------------------------------------------------------------------------|
G|------------------------------------------------------------------------------|
D|------------------------------------------------------------------------------|
A|------------------------------------------------------------------------------|
E|------------------------------------------------------------------------------|
      T     T     T     T     T     T     T     T     T     T      T      T
d|3-5-7-3-5-8-3-5-8-3-5-8-3-5-8-3-5-7-3-5-7-3-5-7-3-5-7-8-5-12-8-5-12-8-5-12----|
B|------------------------------------------------------------------------------|
G|------------------------------------------------------------------------------|
D|------------------------------------------------------------------------------|
A|------------------------------------------------------------------------------|
E|------------------------------------------------------------------------------|
      T      T      T      T      T      T      T      T      T      T
d|8-5-12-7-3-12-7-3-12-7-3-12-7-3-12-8-5-12-8-5-12-8-5-12-8-5-12-7-3-12-7-3--|
B|---------------------------------------------------------------------------|
G|---------------------------------------------------------------------------|
D|---------------------------------------------------------------------------|
A|---------------------------------------------------------------------------|
E|---------------------------------------------------------------------------|
  T      T      T
d|12-7-3-12-7-3-12-7---------------------------------------------------------|
B|---------------------------------------------------------------------------|
G|---------------------------------------------------------------------------|
D|---------------------------------------------------------------------------|
A|---------------------------------------------------------------------------|
E|---------------------------------------------------------------------------|
            
Tabs too difficult? Try these video lessons and learn fast.


comments powered by Disqus
↑ Back to top | Tablatures and chords are parodies/interpretations of the original songs. You may use it for private study, scholarship, research or language learning purposes only