» » »

Alter Mann Tabs (ver.2)

Artists:  A B C D E F G H I J K L M N O P Q R S T U V W X Y Z # 

Alter Mann Tabs (ver.2)

Rammstein
Rating:
4/5 (3 votes)

Hard to play? Try these video lessons and learn fast.
                Tuning:           Drop D

Main Verse:
|---------|--------------------------------------------------------|
|---------|--------------------------------------------------------|
|---------|--------------------------------------------------------|
|---------|--------------------------------------------------1\3---|
|---------|-----2----22-----2----22-----2----22-----2--------1\3---|
|---222---|---2-2-22-22---2-2-22-22---2-2-22-22---2-2-22---0-1\3---|
    ...       .   ..      .   ..      .   ..      .   ..

Chorus 1:     2x              2x                
|---------------|---------------|---------------|---------------|
|---------------|---------------|---------------|---------------|
|---------------|---------------|---------------|---------------|
|-----5----55---|-----4----44---|-----5----55---|-----9----99---|
|---3-3-33-33---|---2-2-22-22---|---3-3-33-33---|---7-7-77-77---|
|---------------|---------------|---------------|---------------|
    .   ..          .   ..          .   ..          .   ..
              2x                                                 2x
|---------------|---------------|---|---------------|---------------|
|---------------|---------------|---|---------------|---------------|
|---------------|---------------|---|---------------|---------------|
|-----4----44---|-----5----55---|---|-----5----55---|-----4----44---|
|---2-2-22-22---|---3-3-33-33---|---|---3-3-33-33---|---2-2-22-22---|
|---------------|---------------|---|---------------|---------------|
    .   ..          .   ..              .   ..          .   ..
                                              2x              2x
|---------------|---------------|---------------|---------------|
|---------------|---------------|---------------|---------------|
|---------------|---------------|---------------|---------------|
|-----5----55---|-----9----99---|-----4----44---|-----5----55---|
|---3-3-33-33---|---7-7-77-77---|---2-2-22-22---|---3-3-33-33---|
|---------------|---------------|---------------|---------------|
    .   ..          .   ..          .   ..          .   ..
|---------------------|
|---------------------|
|---------------------|
|---0-----------------|
|---0-----------------|
|---0-----7h8p7\5-2---|

Chorus 2:     2x              2x
|---------------|---------------|---------------|---------------|
|---------------|---------------|---------------|---------------|
|---------------|---------------|---------------|---------------|
|-----5----55---|-----4----44---|-----5----55---|-----9----99---|
|---3-3-33-33---|---2-2-22-22---|---3-3-33-33---|---7-7-77-77---|
|---------------|---------------|---------------|---------------|
    .   ..          .   ..          .   ..          .   ..
              2x                                                 2x
|---------------|---------------|---|---------------|---------------|
|---------------|---------------|---|---------------|---------------|
|---------------|---------------|---|---------------|---------------|
|-----4----44---|-----5----55---|---|-----5----55---|-----4----44---|
|---2-2-22-22---|---3-3-33-33---|---|---3-3-33-33---|---2-2-22-22---|
|---------------|---------------|---|---------------|---------------|
    .   ..          .   ..              .   ..          .   ..
                                                            
|---------------|---------------|---------------|---------------|
|---------------|---------------|---------------|---------------|
|---------------|---------------|---------------|---------------|
|-----5----55---|-----9----99---|-----4----44---|-----5---------|
|---3-3-33-33---|---7-7-77-77---|---2-2-22-22---|---3-3-33-333--|
|---------------|---------------|---------------|---------------|
    .   ..          .   ..          .   ..          .   .. ...
  
Chorus 3\
Outro         2x              2x
|---------------|---------------|---------------|---------------|
|---------------|---------------|---------------|---------------|
|---------------|---------------|---------------|---------------|
|-----5----55---|-----4----44---|-----5----55---|-----9----99---|
|---3-3-33-33---|---2-2-22-22---|---3-3-33-33---|---7-7-77-77---|
|---------------|---------------|---------------|---------------|
    .   ..          .   ..          .   ..          .   ..
              2x                                                  2x
|---------------|---------------|---|---------------|---------------|
|---------------|---------------|---|---------------|---------------|
|---------------|---------------|---|---------------|---------------|
|-----4----44---|-----5----55---|---|-----5----55---|-----4----44---|
|---2-2-22-22---|---3-3-33-33---|---|---3-3-33-33---|---2-2-22-22---|
|---------------|---------------|---|---------------|---------------|
    .   ..          .   ..              .   ..          .   ..
                                              2x              
|---------------|---------------|---------------|---|---------------|
|---------------|---------------|---------------|---|---------------|
|---------------|---------------|---------------|---|---------------|
|-----5----55---|-----9----99---|-----4----44---|---|-----5----55---|
|---3-3-33-33---|---7-7-77-77---|---2-2-22-22---|---|---3-3-33-33---|
|---------------|---------------|---------------|---|---------------|
    .   ..          .   ..          .   ..          .   ..
             2x               2x            
|---------------|---------------|---------------|---------------|
|---------------|---------------|---------------|---------------|
|---------------|---------------|---------------|---------------|
|-----5----55---|-----4----44---|-----5----55---|-----9----99---|
|---3-3-33-33---|---2-2-22-22---|---3-3-33-33---|---7-7-77-77---|
|---------------|---------------|---------------|---------------|
    .   ..          .   ..          .   ..          .   ..
              2x              2x  
|---------------|---------------|---------------------|
|---------------|---------------|---------------------|
|---------------|---------------|---------------------|
|-----4----44---|-----5----55---|---0-------------2---|
|---2-2-22-22---|---3-3-33-33---|---0-------------2---|
|---------------|---------------|---0-----7h8p7/5-2---|
    .   ..          .   ..
Notation:
. = Palm Mute
\ = Slide To
/ = Slide From

Song Structure:
Main Verse:___3x
Main Verse:___2x
Main Verse:___1x
Chorus 1:___1x
Main Verse:___2x
Main Verse:___1:
Chorus 2:___1x
Chorus 3\Outro:___1x
            
Hard to play? Try these video lessons and learn fast. | Correct




comments powered by Disqus
↑ Back to top | Tablatures and chords are parodies/interpretations of the original songs. You may use it for private study, scholarship, research or language learning purposes only