» » »

Alter Mann Bass tabs (ver.2)

Artists:  A B C D E F G H I J K L M N O P Q R S T U V W X Y Z # 

Alter Mann Bass tabs (ver.2)

Rammstein
Rating:
0/5 (0 votes)

Hard to play? Try these video lessons and learn fast.
                Intro:
G-------|
D-------|
A-------|
D-0-0-0-|

Chorus 1:
G--------------------------------------------------------|
D--------------------------------------------------------|
A--------------------------------------------------------|  X4
D-0-2--2-2--2--0-2--2-2--2--0-2--2-2--2--0-2--2--0-2-3-2-|

Chorus 2:
G----------------------------------------------------|
D----------------------------------------------------|
A----------------------------------------------------|
D-7-7--7-7--7--7-7--7-7--7--5-5--5-5--5--4-4--4-4--4-|

G----------------------------------------------------|
D----------------------------------------------------|
A--------------7-7--7-7--7---------------------------|
D-9-9--9-9--9---------------9-9--9-9--9--9-9--9-9--9-|

G----------------------------------------------------|
D----------------------------------------------------|
A----------------------------------------------------|
D-7-7--7-7--7--7-7--7-7--7--5-5--5-5--5--4-4--4-4--4-|

G----------------------------------------------------|
D----------------------------------------------------|
A--------------7-7--7-7--7---------------------------|
D-9-9--9-9--9---------------9-9--9-9--9--9-9--9-9--9-|

Verse:
G----------------------------------------|
D----------------------------------------|
A----------------------------------------|
D-2~----------2~----------2~----------2~-|
These 2’s are played really quietly but they’re there

G-------|
D-------|
A-------|
D-0-0-0-|

Fill:
G-----------------------------------------------|
D-----------------------------------------------|
A----------------------------0------------------|
D-7-7--7-7--7--7-7--7-7--7--------------0-2-3-2-|
            
Hard to play? Try these video lessons and learn fast. | Correct




comments powered by Disqus
↑ Back to top | Tablatures and chords are parodies/interpretations of the original songs. You may use it for private study, scholarship, research or language learning purposes only