>
 >
Adios 2

Adios 2 Guitar Tabs

Rammstein - Adios 2 chords, tabs, tablatures, lyrics

Guitar lessons | Add/correct | Request | Top 50 tabs Artists:  A B C D E F G H I J K L M N O P Q R S T U V W X Y Z 0-9

Adios 2 Guitar Tabs – Rammstein

CD, Sheet music, Poster

Do you like Adios 2? Share with your friends now
Bass TabsBass Tabs v2TabsTabs v2Tabs v3Tabs v4Tabs v5Tabs v6
Rammstein - Adios guitar tab

Intro  
[ Clean guitar ]  
1st guitar  
e|-------------------------------------------------------------------------|  
B|--8~-------\6~--------------------6~-------------------------------------|  
G|------------------7~-----------7--------7~-------------------------------|  
D|-------------------------------------------------------------------------|  
A|-------------------------------------------------------------------------|  
D|-------------------------------------------------------------------------|  


2nd guitar  
e|--------------------------------------------------------------------------|  
B|--------------------------------------------------------------------------|  
G|*------------------------------------------------------------------------*|  
D|*-8-8-8-8-8-8-8---10-10-10-10-10/12-12\7-7-7-7-7-7-7-7-7-7-7-7-7-7\5-5/8-*|x2  
A|--8-8-8-8-8-8-8----8--8--8--8--8/10-10\5-5-5-5-5-5-5-5-5-5-5-5-5-5\3-3/8--|  
D|--8-8-8-8-8-8-8p0-----------------------------------------------------/8--|  


Main riff  
1st guitar  
e|--------------------------------------------------------------------|  
B|--------------------------------------------------------------------|  
G|------10---7--------------------------------------------------------|  
D|--8---10---7--------------------------------------------------------|  
A|--8----8---5---------------3h5-------------3h5----------------------|  
D|--8------------0-0-0-0-0-0-----0-0-0-0-0-0-----0-0-0-0-0-0-0-0-0-0--|  
pm               . . . . . .     . . . . . .     . . . . . . . . . .  

   

2nd guitar  
e|-------------------------------------------------------------------|  
B|-------------------------------------------------------------------|  
G|-------------------------------------------------------------------|  
D|--8---3---0--------------------------------------------------------|  
A|--8---3---0---------------3h5-------------3h5----------------------|  
D|--8---3---0---0-0-0-0-0-0-----0-0-0-0-0-0-----0-0-0-0-0-0-0-0-0-0--|  
pm              . . . . . .     . . . . . .     . . . . . . . . . .  


Played at the end of every line of the verse  
1st guitar  
e|--------------|  
B|--------------|  
G|------10---7--|  
D|--8---10---7--|  
A|--8----8---5--|  
D|--8-----------|  


2nd guitar  
e|-------------|  
B|-------------|  
G|-------------|  
D|--8---3---0--|  
A|--8---3---0--|  
D|--8---3---0--|  

   

Quiet part  
[ Clean guitar ]  
e|--------------------------------------------------------------------------  
B|--------------------------------------------------------------------------  
G|--------------------------------------------------------------------------  
D|--8-8-8-8-8-8-8---10-10-10-10-10/12-12\7-7-7-7-7-7-7-7-7-7-7-7-7-7\5-5/8--  
A|--8-8-8-8-8-8-8----8--8--8--8--8/10-10\5-5-5-5-5-5-5-5-5-5-5-5-5-5\3-3/8--  
D|--8-8-8-8-8-8-8p0-----------------------------------------------------/8--  


e|---------------------------------------------|  
B|---------------------------------------------|  
G|---------------------------------------------|  
D|--8-8-8-8-8-8-8---10-10-10-10-10/12-12\7-7~--|  
A|--8-8-8-8-8-8-8----8--8--8--8--8/10-10\5-5~--|  
D|--8-8-8-8-8-8-8p0----------------------------|  

   

Chorus  
e|--------------------------------------------------------|  
B|--------------------------------------------------------|  
G|------------10-10-10/12-12\7---7---7---7---7-7-7\5-5----|  
D|--8---8-8---10-10-10/12-12\7---7---7---7---7-7-7\5-5-8--|  
A|--8---8-8----8--8--8/10-10\5---5---5---5---5-5-5\3-3-8--|  
D|--8---8-8p0------------------------------------------8--|  


Solo  
Solo guitar  
e|---------------------------------------------------|  
B|---------------------------------------------------|  
G|--12xb14x14r12-12xb14x14r12-12xb14x14~-x12x10------|  
D|----------------------------------------------12~--|  
A|---------------------------------------------------|  
D|---------------------------------------------------|  


1st rhythm guitar (2nd plays one octave higher)  
e|-----|  
B|-----|  
G|-----|  
D|--0--|  
A|--0--|  
D|--0--|  


Solo guitar  
e|-------------------------------------------------------|  
B|-------------------------------------------------------|  
G|--12xb14x14r12-12xb14x14r12-12xb14x14x14x14r12p10------|  
D|--------------------------------------------------12~--|  
A|-------------------------------------------------------|  
D|-------------------------------------------------------|  


1st rhythm guitar (2nd plays one octave higher)  
e|-----|  
B|-----|  
G|-----|  
D|--0--|  
A|--0--|  
D|--0--|  


Solo guitar  
e|-----------------------------|  
B|-----------------------------|  
G|*-12xb14x14r12-12xb14x14r12-*|  
D|*---------------------------*|x2  
A|-----------------------------|  
D|-----------------------------|  


1st rhythm guitar (2nd plays one octave higher)  
e|-----|  
B|-----|  
G|-----|  
D|--0--|x2  
A|--0--|  
D|--0--|  


Solo guitar  
e|-----------------------------|  
B|-----------------------------|  
G|--12xb14x14r12-12xb14x14r12--|  
D|-----------------------------|  
A|-----------------------------|  
D|-----------------------------|  


1st rhythm guitar (2nd plays one octave higher)  
e|----------------------------|  
B|----------------------------|  
G|----------------------------|  
D|--0------------0------------|  
A|--0------------0------------|  
D|--0------------0------------|  


Solo guitar  
e|-----------------------------|  
B|-----------------------------|  
G|--12xb14x14x14x14r12p10------|  
D|------------------------12~--|  
A|-----------------------------|  
D|-----------------------------|  


Solo guitar  
e|----------------------------------------------------  
B|----------------------------------------------------  
G|*-12xb14x14r12-12xb14x14r12-12xb14x14~-xb14x12x-----  
D|*----------------------------------------------12~--  
A|----------------------------------------------------  
D|----------------------------------------------------  


e|-------------------------------------------------------|  
B|-------------------------------------------------------|  
G|--12xb14x14r12-12xb14x14r12-12xb14x14x14x14r12p10-----*|  
D|--------------------------------------------------12~-*|x4  
A|-------------------------------------------------------|  
D|-------------------------------------------------------|  


1st rhythm guitar (2nd  plays the F and D chords one octave higher)  
e|-----------------------------------------------------------  
B|-----------------------------------------------------------  
G|-----------------------------------------------------------  
D|-----------------------------------------------------------  
A|--3h5-------------3h5-------------3h5----------------------  
D|------0-0-0-0-0-0-----0-0-0-0-0-0-----0-0-0-0-0-0-0-0-0-0--  
pm      . . . . . .     . . . . . .     . . . . . . . . . .  


e|-------------------------------------------------------------------|  
B|-------------------------------------------------------------------|  
G|*-----------------------------------------------------------------*|  
D|*-8---3---0-------------------------------------------------------*|x3  
A|--8---3---0---------------3h5-------------3h5----------------------|  
D|--8---3---0---0-0-0-0-0-0-----0-0-0-0-0-0-----0-0-0-0-0-0-0-0-0-0--|  
pm              . . . . . .     . . . . . .     . . . . . . . . . .  


Ending  
e|---------|  
B|---------|  
G|*--------|  
D|*-8---3--|  
A|--8---3--|  
D|--8---3--|  
   

NOTE: Here is an explanation to the solo. Richard is using a tremolo unit (cuts sounds   
off and on in a given tempo) druing this solo. That is why it sounds so cool. The x signs   
represent where the tremolo unit cuts the sound.  


pm . - palm mute
b - bend
r - release
p - pull off
h - hammer on
x - mute string
~ - vibrato
/ - slide up
\ - slide down





Comments


Popular Rammstein tabs & chords
Mann Gegen Mann Bass Tabs
Other World Bass Tabs
Mutter Drum Tabs
Adios 3 Tabs
Du Riechst So Gut 3 Tabs
Feuer Frei Intro 1 Tabs
Heirate Mich 3 Tabs
Ich Tu Dir Weh Tabs
Roter Sand 1 Tabs
Ohne Dch Ukulele


Song lyrics



↑ Back to top | Tablatures and chords are parodies/interpretations of the original songs. You may use it for private study, scholarship, research or language learning purposes only
© 2014 AZChords.com Contact us | Privacy policy | DMCA | Add/correct tabs | Request tabs | Top 50 tabs