» » »

Streets Of London Tabs (ver.1)

Artists:  A B C D E F G H I J K L M N O P Q R S T U V W X Y Z # 

Streets Of London Tabs (ver.1)

Ralph Mctell
Rating:
2/5 (9 votes)

Hard to play? Try these video lessons and learn fast.
                Streets Of London by Ralph Mctell

Tuning: standard Capo on 2nd fret


intro

     C                  G              Am		
e||--0------------------3--------------------------------------------------|
B||------------1----------------0------1-------0--0h1----------------------|
G||------0----------0-------0-------0------2----------2--------------------|
D||----2---------2--------0-------0------2----------2----------------------|
A||--3---------------------------------0-----0-----------------------------|
E||--------3------------3------3-------------------------------------------|
     Em              F               C               G  
e||--------0---------------1---------0-------------------------------------|
B||--0---------3---------------3---------------1---------------0-----------|
G||----0-----------0---2-----------0---0---0-------0---0---2-------0-------|
D||------2-------2-------3-------3-------2-------2-------0-------0---------|
A||----------------------------------3-------------------------------------|
E||--0-------0-------0-------0---------------3-------3-------3-------------|
     C
e||------------------------------------------------------------------------|
B||--1-------1-------------------------------------------------------------|
G||------0-------0---------------------------------------------------------|
D||----2-------2-----------------------------------------------------------|
A||--3---------------------------------------------------------------------|
E||--------3---------------------------------------------------------------|



verse

     C		      G		         Am		
e||--0----------------3---------------0------------------------------------|
B||----1-------1--------0---------0h3----1-------0-h1-1--------------------|
G||--------0-------0-------0-----------------2--------2--------------------|
D||------2-------2-------0-----------------2-------2-----------------------|
A||--3-----------------------------------0-----0---------------------------|
E||----------3--------3------3---------------------------------------------|
     Em		              F bar over 1     C                Dm		             G
e||--0----------------------1----------0----------------------1---------------------------|
B||----0-------0----------------3----------------1------3---------3-----0--------1-3------|
G||--------0-------0----2-----------0----0---0-------0----2-----------2----0---0-------0--|
D||------2-------2--------3-------3--------2-------2--------3-------3--------0------------|
A||------------------------------------3-----------------------------------------0---2----|
E||--0-------0--------1-------1----------------3--------1-------1-------3-----------------|
  
     C               G	             Am
e||--0---------------3-------0---------------------------------------------|
B||----1-------1-------0-------3-----1---------0-h1------------------------|
G||--------0-------0-------0-------0---2---2---------2---------------------|
D||------2-------2-------0-------0-------2--------2------------------------|
A||--3-------------------------------0-------0-----------------------------|
E||----------3-------3-------3---------------------------------------------|

     Em		     F		     C
e||----0-------------------1---------0-------------------------------------|
B||--0---------0---------------3-------1-------1---------------------------|
G||--------0-------0---2-----------0-------0-------0-----------------------|
D||------2-------2-------3---------------2-------2-------------------------|
A||------------------------------------------------------------------------|
E||--0-------0-------1-------1---2---3-------3-----------------------------|

     G		     C
e||------------------------------------------------------------------------|
B||------------0-----1-------1---------------------------------------------|
G||----0---2-------0-----0-------0-----------------------------------------|
D||------0-------0-----2-------2-------------------------------------------|
A||------------------3-----------------------------------------------------|
E||--3-------3-------------3-----------------------------------------------|


Chorus

     C	             F		   Em
e||--0---------------1-------------0---------------------------------------|
B||----1-------1-------------1-------0-------0-----------------------------|
G||--------0-------0-----2-------2-------0-------0-------------------------|
D||------2-------2-----3-------3-------2-------2---------------------------|
A||--3---------------------------------------------------------------------|
E||----------3-------1-----1-------0-------0-------------------------------|

     C		     Am		   D9	
e||--0-------------0---------------------0---------------------------------|
B||----1-------3-----1-----------1-1---------1-----------------------------|
G||--------0-------------2---2-------2-----------2-------------------------|
D||------2-------0-----2-------2-------0-------0---------------------------|
A||--3-------2-------0-----------------------------------------------------|
E||------------------------3-------2-------2-------------------------------|

     D7		  G7            G7              C
e||-----------------------------------0---1-----0--------------------------|
B||--------0h1----0-------1-----3-------------0---1-------1----------------|
G||------2------2-----0-------0---0-------------------0-------0------------|
D||----0------0-----0-------0-------0-------0-------2-------2--------------|
A||---------------------0-------2---------------3--------------------------|
E||--2------------3---------------------3---------------3------------------|

     G		     Am   	       Em	             F
e||--3-------0-------------------------0-------------------1---------------|
B||--------0---3-----1---------0h1---0---------0---------------3-----------|
G||----0-----------0---2---2-------2-------0-------0---2-----------0-------|
D||------0-------0-------2-------2-------2-------2-------3-----------------|
A||------------------0-------0---------------------------------------------|
E||--3-------3-----------------------0-------0-------1-------1---2---------|
     C               G7      	     C	      C 	   	     
e||--0---------------------------------------------|
B||----1-------1---------------0-----1-------1-----|
G||--------0-------0---0---2-------------0-------0-| 
D||------2-------2-------0---------0---2-------2---|  
A||------------------------------0---3-------------|
E||--3-------3-------3-------3-------------3-------|

"After"-Chorus-thing

     G	   	    Am	          G
e||--3---------------------------------------------|
B||-----------0-----1-------0h1---0-----1---3------|
G||----0---0------0-----2-------2---0-----------0--|(play efter each chours
D||------0------0-----2-------2-------0-------0----| except at the end)
A||-----------------0-----0------------------------|
E||--3------3---------------------3-------3--------|



Ending

     C(sus4)                 C
e||------------------------------------------------------------------------|
B||----------------1----1-------1------------------------------------------|
G||----0---0---0------0---2----0-------------------------------------------|
D||------3-------3------3-----2--------------------------------------------|
A||--3-------3------3--------3---------------------------------------------|
E||------------------------------------------------------------------------|
            
Hard to play? Try these video lessons and learn fast. | Correct




comments powered by Disqus
↑ Back to top | Tablatures and chords are parodies/interpretations of the original songs. You may use it for private study, scholarship, research or language learning purposes only