» » »

Stronger Than Ever Tabs (ver.1)

Artists:  A B C D E F G H I J K L M N O P Q R S T U V W X Y Z # 

Stronger Than Ever Tabs (ver.1)

Raised Fist
Rating:
5/5 (3 votes)

Tabs too difficult? Try these video lessons and learn fast.
                -------------------------------------------------------------------------------
-------------------------------------------------------------------------------

  This is my first tab and I hope that everybody can understand it. There is a couple of
palm-muted open notes that I missed but if you listen to the song you will easily be able
to fill them in.

Tuning:Standard Tuning

     x:Palm mute
     *:Rest left hand lightly on strings (harmonic)

  Intro:

e|-----------------------------------------------------------------------
B|-----------------------------------------------------------------------
G|-----------------------------------------------------------------------
D|---2---------------------------2-2--2-2-2--2-2-2--2-2-2--2-2-2--2-2-2--
A|---2---------------------------2-2--2-2-2--2-2-2--2-2-2--2-2-2--2-2-2--
E|---0---------------------------0-0--0-0-0--0-0-0--0-0-0--0-0-0--0-0-0--
     (Let ring................)  x x  x x x  x x x  x x x  x x x  x x x

  -----------------------------------------------------------------------
  -----------------------------------------------------------------------
  -----------------------------------------------------------------------
  -2-2-2--2-2-2--2-2-2--2-2-2--2-2-2--2-2-2--2-2-2--2-2-2--2-2-2--2-2-2--
  -2-2-2--2-2-2--2-2-2--2-2-2--2-2-2--2-2-2--2-2-2--2-2-2--2-2-2--2-2-2--
  -0-0-0--0-0-0--0-0-0--0-0-0--0-0-0--0-0-0--0-0-0--0-0-0--0-0-0--0-0-0--
   x x x  x x x  x x x  x x x  x x x  x x x  x x x  x x x  x x x  x x x

  ----------------------------|
  ----------------------------|
  ----------------------------|
  -2--------------------------|
  -2--------------------------|
  -0--------------------------|
   (Let ring................)


  Verse:

e|---------------------------------------------------------------------------
B|---------------------------------------------------------------------------
G|--4-4-4-4---------10-9---2-4-4-4-4--5-5-5--7-7-7---4-4-4-4---------10-9----
D|--4-4-4-4--5-5-5--10-9---2-4-4-4-4--5-5-5--7-7-7---4-4-4-4--5-5-5--10-9----
A|--2-2-2-2--5-5-5---8-7-----2-2-2-2--3-3-3--5-5-5---2-2-2-2--5-5-5---8-7----
E|-----------3-3-3--------------------------------------------3-3-3----------

  -------------------------------|
  -------------------------------|
  --9-9-9-9--10-10-10--12-12-12--|  (repeat 2X)
  --9-9-9-9--10-10-10--12-12-12--|
  --7-7-7-7---8--8--8--10-10-10--|
  -------------------------------|


  Bridge:1

e|--------------------------------------|
B|--------------------------------------|
G|--9-9-9-9--5-5-5-5---------5-5--------|  (repeat 2X)
D|--9-9-9-9--5-5-5-5--7-7-7--5-5--5-5---|
A|--7-7-7-7--3-3-3-3--7-7-7--3-3--5-5---|
E|--------------------5-5-5-------3-3---|
    x x x x


  Chorus:
                                         [............repeat 3X..................]
e|---------------------------------------|---------------------------------------|
B|---------------------------------------|---------------------------------------|
G|--2-----2-------5-5-5-5-5-----------4--|-2-2-2-2-2-2-2-2--5-5-5-5-5----------4-|
D|--2-----2-------5-5-5-5-5---5-5-5-5-4--|-2-2-2-2-2-2-2-2--5-5-5-5-5--5-5-5-5-4-|
A|--0-----0-------3-3-3-3-3---5-5-5-5-2--|-0-0-0-0-0-0-0-0--3-3-3-3-3--5-5-5-5-2-|
E|----------------------------3-3-3-3----|-----------------------------3-3-3-3---|
                                             * * *   * * *


  Bridge:2

e|----------------------|
B|----------------------|
G|--------------5-7-5---|  (repeat 4X)
D|--2-----------5-7-5---|
A|--2-----------3-5-3---|
E|--o-------------------|
   (Let ring..) x x x


  Break:

e|---------------------------------------------------------------------
B|---------------------------------------------------------------------
G|--------------------------5-4---------5-4--5-0-5--5-4--7-0-7--10-9---
D|---2---------------7-0-7--5-4--3-0-3--5-4--5-0-5--5-4--7-0-7--10-9---
A|---2---------------7-0-7--3-2--3-0-3--3-2--3-0-3--3-2--5-0-5---8-7---
E|---0---------------5-0-5-------1-0-1---------------------------------
    (Let ring......)   x           x           x           x 
  
  -----------------------------------------------------|
  -----------------------------------------------------|
  --------5-4---------5-4--5-0-5--5-4--7-7-7-7-7-7-7---|
  -7-0-7--5-4--3-0-3--5-4--5-0-5--5-4--7-7-7-7-7-7-7---|
  -7-0-7--3-2--3-0-3--3-2--3-0-3--3-2--5-5-5-5-5-5-5---|
  -5-0-5-------1-0-1-----------------------------------|
     x           x           x             

 
  Outro:1

e|--------------------------------------------------------------------|
B|--------------------------------------------------------------------|
G|----------5-4-----------5-------------5-4--5-5-5-5----5-------------|  (repeat 2X)
D|--7--7-7--5-4--3-3-3-3--5-5---7--7-7--5-4--5-5-5-5--5-5-7-----------|
A|--7--7-7--3-2--3-3-3-3--3-5---7--7-7--3-2--3-3-3-3--5-3-7-----------|
E|--5--5-5-------1-1-1-1----3---5--5-5----------------3---5-Let ring..at end of song-|
       x x         x x x           x x         x x x  ([...] only play second time through)

  Outro:2
e|------------------------------------------------|
B|------------------------------------------------|
G|---------5-4---------5-4--5-5-5-5-5--7-7-7-7-7--|
D|--7-7-7--5-4--3-3-3--5-4--5-5-5-5-5--7-7-7-7-7--|
A|--7-7-7--3-2--3-3-3--3-2--3-3-3-3-3--5-5-5-5-5--|
E|--5-5-5-------1-1-1-----------------------------|
    x x x       x x x       x x x x x


  Outline:
  Intro
  Verse
  Bridge 1
  Chorus
  Bridge 2
  Verse
  Bridge 1
  Chorus
  Break
  Outro 1
  Outro 2
  Outro 1
===============================================================================
            
Tabs too difficult? Try these video lessons and learn fast.


comments powered by Disqus
↑ Back to top | Tablatures and chords are parodies/interpretations of the original songs. You may use it for private study, scholarship, research or language learning purposes only