» » »

Next Tabs (ver.1)

Artists:  A B C D E F G H I J K L M N O P Q R S T U V W X Y Z # 

Next Tabs (ver.1)

Raised Fist
Rating:
5/5 (1 vote)

Hard to play? Try these video lessons and learn fast.
                             Raised Fist - Next 
                      By -{JzE}-      
  

Standard Tuning (EBGDAD)



intro:
e|----------------|------------|
B|----------------|------------|
C|----------------|------------|
D|-------------2--|--7-7-10-9--|
A|--7*--7*--7*-2--|--5-5-8--7--| *Natrual harmonic
E|--5*--5*--5*-0--|------------|
  ^Repeat 5times^

 ("I just don't want to grow up by myself....")
    Verse:                                 
e|----------------------------|
B|----------------------------|
C|----------------------------|
D|--2-2-2-7-7-10-9-9-9--------|
A|--2-2-2-5-5-8--7-7-7-8-8-8--|
E|--0-0-0--------------6-6-6--|                               
      ^Repeat 4 times^                       

   ("I promised myself i would....")
   Bridge 1: 
e|-----------------------------------------|-------------|
B|-----------------------------------------|-------------|
G|-----------------------------------------|-------------|
D|--9999999999999999-5------------------7--|--7-5-7-777--|
A|--7777777777777777-3-5555555555555555-5--|--5-3-5-555--|
E|---------------------3333333333333333----|-------------|
   [---Palm mute---]   [---Palm mute--]             [PM]
                ^Repeat 2 times^
        
    
     Play the verse two more times and then this:
e|-------------------|Bass-----|---------------------|
B|-------------------|-Bass----|---------------------|
C|-------------------|--Bass---|---------------------|
D|--2---9-9-------2--|---Bass--|--22222222222222222--|
A|--2---7-7-8-8-8-2--|----Bass-|--22222222222222222--|
E|--0-------6-6-6-0--|-----Bass|--00000000000000000--|
                                 [----Palm mute----] 
   Bridge 2:
E|----------------------------------|---------------------------------|---------------|
B|----------------------------------|---------------------------------|---------------|
C|----------------------------------|---------------------------------|---------------|
D|--22222-22-5/9-9-5-5-5-0-3-0-2-0--|--2---2-2-0-2-0-3-0-2---2-0-2-0--|-7-7-10-9-9-9--|
A|--22222-22-3/7-7-3-3-3-0-3-0-2-0--|--2---2-2-0-2-0-3-0-2---2-0-2-0--|-5-5-8--7-7-7-8|
E|--00000-00---------0-0-0-3-0-2-0--|--0---2-2-0-2-0-3-0-0---2-0-2-0--|--------------6|
    [-P.M--]         [-Palm mute-]         [-------Palm mute-------]
       ^Repeat 4 times^                     ^Repeat 2 times^


                       
                     -Play the verse 4 more times
                      -Then play bridge 1 two times

The quick ending =)
e|-----|
B|-----|
C|-----|
D|--2--|
A|--2--|
E|--0--|  
            
Hard to play? Try these video lessons and learn fast. | Correct




comments powered by Disqus
↑ Back to top | Tablatures and chords are parodies/interpretations of the original songs. You may use it for private study, scholarship, research or language learning purposes only