>
 >
Message Beneath Contempt

Message Beneath Contempt Guitar Tabs

Raised Fist - Message Beneath Contempt chords, tabs, tablatures, lyrics

Guitar lessons | Add/correct | Request | Top 50 tabs Artists:  A B C D E F G H I J K L M N O P Q R S T U V W X Y Z 0-9

Message Beneath Contempt Guitar Tabs – Raised Fist

CD, Sheet music, Poster

Do you like Message Beneath Contempt? Share with your friends now
Tabs
Raised Fist - Message Beneath Contempt

Drop C Tune: CGCFAD

* = mute
/ = slide down
~ = let ring


Intro

|---------------------|
|---------------------|
|---------------------|
|--888888----8888888--|
|--888888----8888888--|
|--888888----8888888--|

|------------------------------------------------------|
|------------------------------------------------------|
|------------------------------------------------------|
|--/12-0000--/12-000-8-7-11--/12-0000--/12-000-888888--|
|--/12-0000--/12-000-8-7-11--/12-0000--/12-000-888888--|
|--/12-0000--/12-000-8-7-11--/12-0000--/12-000-888888--|
       ***       ***             ***       ***
|--------------------------------------------------------------------------|
|--------------------------------------------------------------------------|
|--------------------------------------------------------------------------|
|--/12-0000--/12-000-8-7-11--/12-0000--8777-12-11-11-11--7777-11-11-11-11--|
|--/12-0000--/12-000-8-7-11--/12-0000--8777-12-11-11-11--7777-11-11-11-11--|
|--/12-0000--/12-000-8-7-11--/12-0000--8777-12-11-11-11--7777-11-11-11-11--|
       ***       **              ***   **


Verse

|------------------------------------------------------------------|
|------------------------------------------------------------------|
|------------------------------------------------------------------|
|--3-1-1--00000000000-333-000-111-555--000000000000-333333333-111--|    2x
|--3-1-1--00000000000-333-000-111-555--000000000000-333333333-111--|
|--3-1-1--00000000000-333-000-111-555--000000000000-333333333-111--|
     * *  *********** *** *** *** ***  ************ ********* ***
|--------------------------|
|--------------------------|
|--------------------------|
|--121212-131313-101010-8--|    gt1 only!
|--121212-131313-101010-8--|
|--121212-131313-101010-8--|
   ****** ****** ****** 


Chours

|------------------------------------------------------------------|
|------------------------------------------------------------------|
|------------------------------------------------------------------|
|--/12-000-/12-000-/12-000-8-7-11--/12-000-/12-000-/12-000-888888--|
|--/12-000-/12-000-/12-000-8-7-11--/12-000-/12-000-/12-000-888888--|
|--/12-000-/12-000-/12-000-8-7-11--/12-000-/12-000-/12-000-888888--|
       ***     ***     ***             ***     ***     ***
|--------------------------------------------------------------------|
|--------------------------------------------------------------------|
|--------------------------------------------------------------------|
|--/12-000-/12-000-/12-000-8-7-11--/12-000-/12-000-8777-12-11-11-11--|
|--/12-000-/12-000-/12-000-8-7-11--/12-000-/12-000-8777-12-11-11-11--|
|--/12-000-/12-000-/12-000-8-7-11--/12-000-/12-000-8777-12-11-11-11--|
       ***     ***     ***             ***     ***
|------------------------------------------------------|
|------------------------------------------------------|
|------------------------------------------------------|
|--/12-0000--/12-000-8-7-11--/12-0000--/12-000-888888--|
|--/12-0000--/12-000-8-7-11--/12-0000--/12-000-888888--|
|--/12-0000--/12-000-8-7-11--/12-0000--/12-000-888888--|
       ***       ***             ***       ***
|----------------------------------------------------------------|
|----------------------------------------------------------------|
|----------------------------------------------101010------------|
|--/12-0000--/12-000-8-7-11--/12-0000--888-777-101010-101010-12--|
|--/12-0000--/12-000-8-7-11--/12-0000--888-777-8-8-8--101010-12--|
|--/12-0000--/12-000-8-7-11--/12-0000--888-777--------101010-12--|
       ***       ***             ***   *** *** *****  ******


Verse 2

|-------------------------------------------------------------------|
|-------------------------------------------------------------------|
|-------------------------------------------------------------------|
|--3-1-1--00000000000-333-000-111-555--000000000000-3333333333-111--|
|--3-1-1--00000000000-333-000-111-555--000000000000-3333333333-111--|
|--3-1-1--00000000000-333-000-111-555--000000000000-3333333333-111--|
     * *  *********** *** *** *** ***  ************ ********** ***
|----------------------------------------------------------------|
|----------------------------------------------------------------|
|----------------------------------------------------------------|
|--00000000000-333-000-111-555--000000000000-333333333-3-1-1-0~--|
|--00000000000-333-000-111-555--000000000000-333333333-3-1-1-0~--|
|--00000000000-333-000-111-555--000000000000-333333333-3-1-1-0~--|
   *********** *** *** *** ***  ************ *********   * *


Bridge

|-------------------------------|
|-------------------------------|
|-------------------------------|
|--8-131313-10-12----10-131313--|
|--8-131313-10-12----10-131313--|
|--8-131313-10-12----10-131313--|

|-----------------------------------------------------------|
|-----------------------------------------------------------|
|-----------------------------------------------------------|
|--0-000-0-000-8-888-13-12-10-12--0-000-0-000-8-1313131313--|
|--0-000-0-000-8-888-13-12-10-12--0-000-0-000-8-1313131313--|
|--0-000-0-000-8-888-13-12-10-12--0-000-0-000-8-1313131313--|
     ***   ***   ***                ***   *** 
|-------------------------------------------------------------|
|-------------------------------------------------------------|
|-------------------------------------------------------------|
|--0-000-0-000-8-888-13-12-10-12--0-000-0-000-8-131313-10-12--|
|--0-000-0-000-8-888-13-12-10-12--0-000-0-000-8-131313-10-12--|
|--0-000-0-000-8-888-13-12-10-12--0-000-0-000-8-131313-10-12--|
     ***   ***   ***                ***   ***   
|-----------------------------------------------------------|
|-----------------------------------------------------------|
|-----------------------------------------------------------|
|--0-000-0-000-8-888-13-12-10-12--0-000-0-000-8-1313131313--|
|--0-000-0-000-8-888-13-12-10-12--0-000-0-000-8-1313131313--|
|--0-000-0-000-8-888-13-12-10-12--0-000-0-000-8-1313131313--|
     ***   ***   ***                ***   ***
|-------------------------------------------------------------------------|
|-------------------------------------------------------------------------|
|---------------------------------------------------------------------10--|
|--0-000-0-000-8-888-13-12-10-12--0-000-0-000-8-131313-10-12--888-777-10--|
|--0-000-0-000-8-888-13-12-10-12--0-000-0-000-8-131313-10-12--888-777-8---|
|--0-000-0-000-8-888-13-12-10-12--0-000-0-000-8-131313-10-12--888-777-----|
     ***   ***   ***                ***   ***                 *** ***


Chorus 2

|------------------------------------------------------------------|
|------------------------------------------------------------------|
|------------------------------------------------------------------|
|--/12-000-/12-000-/12-000-8-7-11--/12-000-/12-000-/12-000-888888--|
|--/12-000-/12-000-/12-000-8-7-11--/12-000-/12-000-/12-000-888888--|
|--/12-000-/12-000-/12-000-8-7-11--/12-000-/12-000-/12-000-888888--|
       ***     ***     ***             ***     ***     ***
|--------------------------------------------------------------------|
|--------------------------------------------------------------------|
|--------------------------------------------------------------------|
|--/12-000-/12-000-/12-000-8-7-11--/12-000-/12-000-8777-12-11-11-11--|
|--/12-000-/12-000-/12-000-8-7-11--/12-000-/12-000-8777-12-11-11-11--|
|--/12-000-/12-000-/12-000-8-7-11--/12-000-/12-000-8777-12-11-11-11--|
       ***     ***     ***             ***     ***
|------------------------------------------------------|
|------------------------------------------------------|
|------------------------------------------------------|
|--/12-0000--/12-000-8-7-11--/12-0000--/12-000-888888--|
|--/12-0000--/12-000-8-7-11--/12-0000--/12-000-888888--|
|--/12-0000--/12-000-8-7-11--/12-0000--/12-000-888888--|
       ***       ***             ***       ***
|-------------------------------------------------------------|
|-------------------------------------------------------------|
|-------------------------------------------------------------|
|--/12-0000-/12-000-8-7-11--/12-000-/12-000-8777-12-11-11-11--|
|--/12-0000-/12-000-8-7-11--/12-000-/12-000-8777-12-11-11-11--|
|--/12-0000-/12-000-8-7-11--/12-000-/12-000-8777-12-11-11-11--|
       ***      ***             ***     ***
|---------------|
|---------------|
|----10---------|
|--8-10-10-12/--|
|--8-8--10-12/--|
|--8----10-12/--|





Comments


Popular Raised Fist tabs & chords
Breaking Me Up Drum Tabs
Breaking Me Up Tabs
Breaking Me Up 1 Tabs
Envy Is Dangerous Tabs
Friends And Traitors Intro Tabs
Illustration Of Desperation Tabs
Maintain Tabs
Pretext Tabs
Running Man Tabs
Stronger Than Ever Tabs


Song lyrics



↑ Back to top | Tablatures and chords are parodies/interpretations of the original songs. You may use it for private study, scholarship, research or language learning purposes only
© 2014 AZChords.com Contact us | Privacy policy | DMCA | Add/correct tabs | Request tabs | Top 50 tabs