» » »

Raised Fist, Maintain Tabs (ver.1)

Artists:  A B C D E F G H I J K L M N O P Q R S T U V W X Y Z # 

Maintain Tabs (ver.1)

Raised Fist Tabs
Rating:
0/5 (0 votes)
Maintain lessons Tabs too difficult? Try these video lessons and learn fast
                                         RAISED FIST - MAINTAIN


                             TAB BY MARCUS

(THIS TAB DOES JUST SHOW THE CHORDS, I THINK IT SOUNDS OKEY)


Tune down a half step

1 - D#    4 - C#           PM - Palm mute

2 - A#    5 - G#            H - Hammer on/pull off

3 - F#    6 - D#            / - Slide

                           LR - Let Ring


_______________________________________________________________________


   LR                                   PM___________________________
-----------------------------------------------------------------------|
-----------------------------------------------------------------------|
-----------------------------------------------------------------------|
---10-------------------------11-8--10--10-10-10-10-10-10-10-10-10-10--|
---10-------------------------11-8--10---------------------------------|
---8--------------------------9--6--8----------------------------------|

        LR                  PM_____________________________
-----------------------------------------------------------------------|
-----------------------------------------------------------------------|
-----------------------------------------------------------------------|
--11-8--10-------------------------------------------------------------|
--11-8--10------------------8-8-8-8-8-8-8-8-8-8-8-8-8-8-8-8------------|
--9--6--8-------------------6-6-6-6-6-6-6-6-6-6-6-6-6-6-6-6------------|

I guess there is many ways to play this but I find this way pretty good.

                                 LR
-----------------------------------------------------------------------|
-----------------------------------------------------------------------|
---------------------------------8-----7/8--10---10--10----------------| x2
---10---11/10---13/10---11/10-8--8-----7/8--10---10--10---8------------|
---10---11/10---13/10---11/10-8--6-----5/6--8----8---8----8------------|
---8----9-/8----11/8----9-/8--6---------------------------6------------|

                                 LR


Listen to the song to hear how to play this part.

                                 LR
-----------------------------------------------------------------------|
-----------------------------------------------------------------------|
---------------------------------8-----7/8--10---10--10----------------| x2
---10---11/10---13/10---11/10-8--8-----7/8--10---10--10---8------------|
---10---11/10---13/10---11/10-8--6-----5/6--8----8---8----8------------|
---8----9-/8----11/8----9-/8--6---------------------------6------------|

   LR      LR      LR            PM_________________           LR
-----------------------------------------------------------------------|
-----------------------------------------------------------------------|
------------------------------8----------------------------------------|
---10------10------10---------8--8-8-8-8-8-8-8-8-8-8--8--8--8--10------|
---10------10------10---------6--6-6-6-6-6-6-6-6-6-6--8--8--8--10------|
---8-------8-------8----------------------------------6--6--6--8-------|

   PM_________________            LR
-----------------------------------------------------------------------|
-----------------------------------------------------------------------|
-----------------------------------------------------------------------|
---8-8-8-8-8-8-8-8-8-8---8--8--8--10-----------------------------------|
---6-6-6-6-6-6-6-6-6-6---8--8--8--10-----------------------------------|
-------------------------6--6--6--8------------------------------------|


                                      PM___________________________
-----------------------------------------------------------------------|
-----------------------------------------------------------------------|
-----------------------------------------------------------------------|
----------8-8h10-------------11/10/8--10-10-10-10-10-10-10-10-10-10----|
---8h10----------------------11/10/8--10-------------------------------|
-----------------------------9-/8-/6--8--------------------------------|


         LR
-----------------------------------------------------------------------|
-----------------------------------------------------------------------|
-----------------------------------------------------------------------|
---11-8--10------------------------------------------------------------|
---11-8--10------------------------------------------------------------|
---9--6--8-------------------------------------------------------------|

   PM__________________________________________
-----------------------------------------------------------------------|
-----------------------------------------------------------------------|
-----------------------------------------------------------------------|
-----------------------------------------------------------------------|
---10-10-10-10-10-10-10-10-10-10-10-10-10-10-10------------------------|
---8--8--8--8--8--8--8--8--8--8--8--8--8--8--8-------------------------|


-----------------------------------------------------------------------|
-----------------------------------------------------------------------|
---------------------------------8-----7/8--10---10--10----------------| x2
---10---11/10---13/10---11/10-8--8-----7/8--10---10--10---8------------|
---10---11/10---13/10---11/10-8--6-----5/6--8----8---8----8------------|
---8----9-/8----11/8----9-/8--6---------------------------6------------|

                                 LR


Listen to the song to hear how to play this part.

                                 LR
-----------------------------------------------------------------------|
-----------------------------------------------------------------------|
---------------------------------8-----7/8--10---10--10----------------| x2
---10---11/10---13/10---11/10-8--8-----7/8--10---10--10---8------------|
---10---11/10---13/10---11/10-8--6-----5/6--8----8---8----8------------|
---8----9-/8----11/8----9-/8--6---------------------------6------------|


   LR      LR    LR              PM_________________
-----------------------------------------------------------------------|
-----------------------------------------------------------------------|
------------------------------8----------------------------------------|
---10------10----10-----------8--8-8-8-8-8-8-8-8-8-8--8--8--8--10------|
---10------10----10-----------6--6-6-6-6-6-6-6-6-6-6--8--8--8--10------|
---8-------8------8-----------------------------------6--6--6--8-------|

                        PM___________________________
-----------------------------------------------------------------------|
-----------------------------------------------------------------------|
-----------------------------------------------------------------------|
------------------------8-8-8-8-8-8-8-8-8-8-8-8-8-8-8--8--8--8--8--10--|
---------8-8h10---------6-6-6-6-6-6-6-6-6-6-6-6-6-6-6--6--6--6--6--10--|
---8h10---------------------------------------------------6--6--6--8---|


                                      PM___________________________
-----------------------------------------------------------------------|
-----------------------------------------------------------------------|
-----------------------------------------------------------------------|
----------8-8h10-------------11/10/8--10-10-10-10-10-10-10-10-10-10----|
---8h10----------------------11/10/8--10-------------------------------|
-----------------------------9-/8-/6--8--------------------------------|

                        PM___________________________
-----------------------------------------------------------------------|
-----------------------------------------------------------------------|
-----------------------------------------------------------------------|
------------------------8-8-8-8-8-8-8-8-8-8-8-8-8-8-8--8--8--8--8--10--|
----------6h8-----------6-6-6-6-6-6-6-6-6-6-6-6-6-6-6--6--6--6--8--10--|
---8h8----------------------------------------------------6--6--6--8---|


-----------------------------------------------------------------------|
-----------------------------------------------------------------------|
-----------------------------------------------------------------------|
----------8-8h10-------------------------------------------------------|
---8h10----------------------------------------------------------------|
-----------------------------------------------------------------------|

                       PM__       PM___      PM_____
-----------------------------------------------------------------------|
-----------------------------------------------------------------------|
-----------------------------------------------------------------------|
--10-10-10-10--10------8-8-8-------------------------------------------|
--10-10-10-10--10------6-6-6------8-8-8------3-3-3-3-3-----6-6-6-6-6/8-|
--8--8--8--8---8------------------6-6-6------1-1-1-1-1-----4-4-4-4-4/6-|

                       PM__       PM___      PM_____
-----------------------------------------------------------------------|
-----------------------------------------------------------------------|
-----------------------------------------------------------------------|
--10-10-10-10--10------8-8-8-------------------------------------------|
--10-10-10-10--10------6-6-6------8-8-8------3-3-3-3-3-----6-6-6-6-6/8-|
--8--8--8--8---8------------------6-6-6------1-1-1-1-1-----4-4-4-4-4/6-|

                       PM__       PM___      PM_____
-----------------------------------------------------------------------|
-----------------------------------------------------------------------|
-----------------------------------------------------------------------|
--10-10-10-10--10------8-8-8-------------------------------------------|
--10-10-10-10--10------6-6-6------8-8-8------3-3-3-3-3-----6-6-6-6-6/8-|
--8--8--8--8---8------------------6-6-6------1-1-1-1-1-----4-4-4-4-4/6-|

                       PM__       PM___      PM_____
-----------------------------------------------------------------------|
-----------------------------------------------------------------------|
-----------------------------------------------------------------------|
--10-10-10-10--10------8-8-8-------------------------------------------|
--10-10-10-10--10------6-6-6------8-8-8------3-3-3-3-3-----6-6-6-6-6/8-|
--8--8--8--8---8------------------6-6-6------1-1-1-1-1-----4-4-4-4-4/6-|

                       PM__       PM___      PM_____
-----------------------------------------------------------------------|
-----------------------------------------------------------------------|
-----------------------------------------------------------------------|
--10-10-10-10--10------8-8-8-------------------------------------------|
--10-10-10-10--10------6-6-6------8-8-8------3-3-3-3-3-----6-6-6-6-6/8-|
--8--8--8--8---8------------------6-6-6------1-1-1-1-1-----4-4-4-4-4/6-|

                       PM__      PM___     PM_____                 LR
-----------------------------------------------------------------------|
-----------------------------------------------------------------------|
-----------------------------------------------------------------------|
--10-10-10-10--10------8-8-8-------------------------------------------|
--10-10-10-10--10------6-6-6-----8-8-8-----3-3-3-3-3---6-6-6-6-6-8-10--|
--8--8--8--8---8-----------------6-6-6-----1-1-1-1-1---4-4-4-4-4-6-8---|


                                 END
            

comments powered by Disqus
↑ Back to top | Raised Fist Tabs for Maintain. Lyrics for acoustic guitar and electric guitar. Tablatures and chords are parodies/interpretations of the original songs. You may use it for private study, scholarship, research or language learning purposes only