» » »

Raine Maida, Sex Love And Honey Tabs (ver.1)

Artists:  A B C D E F G H I J K L M N O P Q R S T U V W X Y Z # 

Sex Love And Honey Tabs (ver.1)

Raine Maida Tabs
Rating:
5/5 (1 vote)
Sex Love And Honey lessons Tabs too difficult? Try these video lessons and learn fast
                Drop D Tunning

------------------------------------------------------------------------------|
------------------------------------------------------------------------------|
-------0-------------0-------------0-------------2----------------------------|
---2-----2---2---2-----2---2---1-----1---1---3-----3---3----------------------|
------------------------------------------------------------------------------|
-2---2-----2---2---2-----2---1---1-----1---3---3-----3------------------------|
 Verse

------------------------------------------------------------------------------|
------------------------------------------------------------------------------|
--------3-----7-----5---------2---------3---3p2p0-------3-----7-----5---------|
----5-----5-----8-----7---3-----3---3---------------5-----5-----8-----7---3---|
------------------------------------------------------------------------------|
--5---5-----8-----7-----3---3-----3---3---3-------5---5-----8-----7-----3-----|
  Chorus

------------------------------------------------------------------------------|
------------------------------------------------------------------------------|
---2---------3---3p2p0-------3------9------7---------2---------3---3p2p0------|
-----3---3---------------5-----5------10-----8---3-----3---3---------------5--|
------------------------------------------------------------------------------|
-3-----3---3---3-------5---5-----10------8-----3---3-----3---3---3-------5----|


------------------------------------------------------------------------------|
------------------------------------------------------------------------------|
---3-----7-----5---------2---------3---3p2p0----------------------------------|
-----5-----8-----7---3-----3---3----------------------------------------------|
------------------------------------------------------------------------------|
-5-----8-----7-----3---3-----3---3---3----------------------------------------|


------------------------------------------------------------------------------|
------------------------------------------------------------------------------|
----------8-------------------8----------------7-------------7----------------|
----10------10----10----10------10----10---8-----8---8---8-----8---8----10----|
------------------------------------------------------------------------------|
-10----10------10----10----10------10----8---8-----8---8---8-----8---10-------|
 Breakdown

------------------------------------------------------------------------------|
------------------------------------------------------------------------------|
----8-------------------8------------7-----5---------3-------------3----------|
------10----10----10------10----10-----8-----6---5-----5---5---5-----5---5----|
------------------------------------------------------------------------------|
-10------10----10----10------10----8-----6-----5---5-----5---5---5-----5---3--|


------------------------------------------------------------------------------|
------------------------------------------------------------------------------|
-----2-------------2----------------------------------------------------------|
-3-----3---3---3-----3---3----------------------------------------------------|
------------------------------------------------------------------------------|
---3-----3---3---3-----3------------------------------------------------------|


------------------------------------------------------------------------------|
------------------------------------------------------------------------------|
-3--7--5--2-------------------------------------------------------------------|
-5--8--7--3-------------------------------------------------------------------|
-x--x--x--x-------------------------------------------------------------------|
-5--8--7--3-------------------------------------------------------------------|
 Pre Outro
            
Submit corrections

comments powered by Disqus
↑ Back to top | Raine Maida Tabs for Sex Love And Honey. Lyrics for acoustic guitar and electric guitar. Tablatures and chords are parodies/interpretations of the original songs. You may use it for private study, scholarship, research or language learning purposes only