» » »

Rainbow Butt Monkeys, Scrumpy Tabs (ver.2)

Artists:  A B C D E F G H I J K L M N O P Q R S T U V W X Y Z # 

Scrumpy Tabs (ver.2)

Rainbow Butt Monkeys Tabs
 Rating:
4/5 (4 votes)
Scrumpy lessons Tabs too difficult? Try these video lessons and learn fast
1
                Song name: Scrumpy

*** this song is done with two guitars, that's why there's
tab for two. When there's not, that means that they're both
playing the same thing.

Intro:
e:--2-3-4-3-2-----2--2-3-4-3-2-----2--|
B:-------------3----------------3-----|
G:------------------------------------|
D:------------------------------------|
A:------------------------------------|
E:------------------------------------|

Riff 1:					[guitar one]
e:--2-3-4-3-2---2-/-8 ------2--|      e:--0--------|
B:--4-5-6-5-4---4-/-10------4--|      B:--2--------|
G:--4-5-6-5-4---4-/-10------4--|      G:--2--------|
D:-----------------------------|      D:-----------|
A:-----------------------------| play 2x  A:-------|
E:-----------------------------|      E:-----------|

Riff 2:			A			B
e:--0-2----------|  e:-0-2---0-2---0----|  e:---------------|
B:----------0-2--|  B:---------------0--|  B:--2/3-3-3-3-3-3|
G:---------------|  G:------------------|  G:---------------|
D:---------------|  D:------------------|  D:---------------|
A:---------------|  A:------------------|  A:---------------|
E:---------------|  E:------------------|  E:---------------|

Riff 3:
e:--7-7-7-7-7-7-7-7-7-3-3-3-3-3-3-3-3--|
B:--9-9-9-9-9-9-9-9-9-5-5-5-5-5-5-5-5--|
G:--9-9-9-9-9-9-9-9-9-5-5-5-5-5-5-5-5--|
D:-------------------------------------|
A:-------------------------------------|
E:-------------------------------------|
[guitar two]
e:--7-7-7-7-7-7-7-7-7-3-3-3-3-3-3-3-3--|
B:--9-9-9-9-9-9-9-9-9-5-5-5-5-5-5-5-5--|
G:--9-9-9-9-9-9-9-9-9-5-5-5-5-5-5-5-5--|
D:-------------------------------------|
A:-------------------------------------|
E:-------------------------------------|

[guitar one]
e:--7-7-7-7-7-7-7-10-10-3-3-3-3-3-3-3-3--|
B:--9-9-9-9-9-9-9-12-12-5-5-5-5-5-5-5-5--|
G:--9-9-9-9-9-9-9-12-12-5-5-5-5-5-5-5-5--|
D:---------------------------------------|
A:---------------------------------------|
E:---------------------------------------|

Solo:
e:------------------------------------------------------|
B:--2-------2-2-2-2-2---0---------------------------0-2-|
G:------------------------2---------------------2-------|
D:------------------------------2---4-------2-4---4-----|
A:--------------------------------------2-4-------------|
E:------------------------------------------------------|

e:-----------------------------------------|
B:----0---------------------------2-0------|
G:------2-------------------2-4-4-----2----|
D:--------4-------4-----2-4-------------4--|
A:------------------2-4--------------------|
E:-----------------------------------------|

Finale:			A	[guitar one]	    B
e:--2-3-4-3-2---2--| e:--8 -8 -8 -8 -8 -8 -8 --| e:--8 -2--|
B:--4-5-6-5-4---4--| B:--10-10-10-10-10-10-10--| B:--10-4--|
G:--4-5-6-5-4---4--| G:--10-10-10-10-10-10-10--| G:--10-4--|
D:-----------------| D:------------------------| D:--------|
A:-----------------| A:------------------------| A:--------|
E:-----------------| E:------------------------| E:--------|
			A	[guitar two]
		     e:--7-7-7-7-7-7-7-7--|
		     B:--9-9-9-9-9-9-9-9--|
		     G:--9-9-9-9-9-9-9-9--|
		     D:-------------------|
		     A:-------------------|
		     E:-------------------|
            
Submit corrections

comments powered by Disqus
↑ Back to top | Rainbow Butt Monkeys Tabs for Scrumpy. Lyrics for acoustic guitar and electric guitar. 1 Tablatures and chords are parodies/interpretations of the original songs. You may use it for private study, scholarship, research or language learning purposes only