>
 >
Stargazer

Stargazer Guitar Tabs

Rainbow - Stargazer chords, tabs, tablatures, lyrics

Guitar lessons | Add/correct | Request | Top 50 tabs Artists:  A B C D E F G H I J K L M N O P Q R S T U V W X Y Z 0-9

Stargazer Guitar Tabs – Rainbow

CD, Sheet music, Poster

Do you like Stargazer? Share with your friends now
Tabs
-------------------------------------------------------------------------------
			     STARGAZER-RAINBOW
-------------------------------------------------------------------------------
STARGAZER
BY RAINBOW 
WRITTEN BY RITCHIE BLACKMORE AND RONNIE JAMES DIO
OFF THE 1976 ALBUM "RISING"

Lyrics are only rough placements. 
This is arranged for 2 guitars playing the same unless otherwise stated.
Please not that I did not tab the solo and that it is someone elses doing who
does not wish to be mentioned.
                                                          
e|------|------|------|------|--------------------------------|
B|------|------|------|------|--------------------------------|
G|------|-DRUMS|------|------|--------------------------------|
D|------|------|------|------|--------------------------------|
A|------|------|------|------|-----5-6-7~~~-------5-6-7~~~----|
E|------|------|------|------|--0--------------0--------------|


                                                      
--------------------------------|--------------------------------|
--------------------------------|--------------------------------|
--------------------------------|--------------------------------|
--------------------5--4--------|--------------------------------|
-----5-6-7~~~------------5~~~---|-----5-6-7~~~-------5-6-7~~~----|
--0--------------0--------------|--0--------------0--------------|


                                                                     
----------------------------------------|---------------------------|
----------------------------------------|---------------------------|
----------------------------------------|------------2b-2-0-2-0-----|
------------------5-4---4---------------|----5------------------2-0-|
-----5-6-7--5-6-7-----7---7-5---5-------|----5----------------------|
--0---------------------------7---7-7-6-|--5-3----------------------|
           (Fast)

                                                                              
-----------------------|--------------------------------|--------------------------------|
-----------------------|--------------------------------|--------------------------------|
-----------------------|--------------------------------|--------------------------------|
-------5--7------------|--------------------------------|-------------------5--4---------|
-------5--7------------|-----5-6-7~~~-------5-6-7~~~----|-----5-6-7~~~------------5~~~---|
-------3--5------3-2-1-|--0--------------0--------------|--0-------------0---------------|
                            High   noon  oh  i'd sell  my soul for water

                                                      
----------------------------|----------------------------|
----------------------------|----------------------------|
----------------------------|----------------------------|
----------------------------|------------------5--4------|
-----5-6-7~-------5-6-7~----|-----5-6-7~------------5~---|
--0------------0------------|--0------------0------------|
  Nine    years worth  of  breaking my back

                                                      
----------------------------|----------------------------|
----------------------------|----------------------------|
----------------------------|----------------------------|
----------------------------|------------------5--4------|
-----5-6-7~-------5-6-7~----|-----5-6-7~------------5~---|
--0------------0------------|--0------------0------------|
  Theres no  sun   in the shadow of the wizard

                                                                            
----------------------------|-------------------------|----------------------|
----------------------------|-------------------------|----------------------|
----------------------------|-------------------------|----------------------|
----------------------------|-------------------------|-----------------5----|
-----5-6-7~-------5-6-7~----|-----5-6-7--5-6-7--------|--4----5----7----3----|
--0------------0------------|--0----------------------|--2----3----5---------|
 See how he glides why he's lighter than air           Oh I see his face



Guitar 1                                                                     
--------------------------|-------------------------|--------------------------|
--------------------------|-------------------------|--------------------------|
----4--4--------4--4------|----4--4-----4--4/5------|----4--4-------4--4-------|
----4--4--------4--4------|----4--4-----4--4/5------|----4--4-------4--4-------|
----2--2--------2--2------|----2--2-----2--2/3------|----2--2-------2--2-------|
--------------------------|-------------------------|--------------------------|
Guitar 2                  |                         |                          
-----------------------2--|-------------------------|-----------------------5--|
--0--1--0--4--0--1--0-----|--0--1--0-1-0---0--------|--0--1--0--4--0--1--0-----|
--------------------------|--------------2----------|--------------------------|
--------------------------|-------------------------|--------------------------|
--------------------------|-------------------------|--------------------------|
--------------------------|-------------------------|--------------------------|
             Where  is  your   star                    Is it far,  is it far    


Guitar 1                                                                     
-------------------------|--------------------------|-------------------------|
-------------------------|--------------------------|-------------------------|
----4--4--------4-4/5----|-----4--4-------4--4------|---4--4------4-4/5-------|
----4--4--------4-4/5----|-----4--4-------4--4------|---4--4------4-4/5-------|
----2--2--------2-2/3----|-----2--2-------2--2------|---2--2------2-2/3-------|
-------------------------|--------------------------|-------------------------|
Guitar 2                 |                          |                         
----3--2-3-2-------------|-----------------------2--|-------------------------|
-------------1-0-----1---|--0--1--0--4--0--1--0-----|--0--1--0-1-0---0--------|
-------------------------|--------------------------|--------------2----------|
-------------------------|--------------------------|-------------------------|
-------------------------|--------------------------|-------------------------|
-------------------------|--------------------------|-------------------------|
Is  it far                         When do we leave      I beleive      



Guitar 1                                                                    
--------------------------|-------------------------|----------------------|
--------------------------|-------------------------|----------------------|
---4--4-------4--4--------|----4--4-------4---------|----------------------|
---4--4-------4--4--------|----4--4-------4---------|----------------------|
---2--2-------2--2--------|----2--2-------2---------|---5---7----10----9---|
--------------------------|-------------------------|----------------------|
Guitar 2                  |                         |
-----------------------5--|----3--2-3-2-------------|----------------------|
--0--1--0--4--0--1--0-----|-------------1-0-----1---|----------------------|
--------------------------|-------------------------|----------------------|
--------------------------|-------------------------|----------------------|
--------------------------|-------------------------|-------0----3------2--|
--------------------------|-------------------------|--3-------------------|
               Yes  I believe



Guitar 1
-----------------------------|------------------------------|
-----------------------------|------------------------------|
-----------------------------|------------------------------|
-----------------------------|------------------------------|
------12--10-9---7-----------|-------12--10-9---7-----------|
-----------------------------|------------------------------|
Guitar 2                     |                              |
-----------------------------|------------------------------|
-----------------------------|------------------------------|
-----------------------------|------------------------------|
-----------------------------|------------------------------|
-----------------------------|------------------------------|
---5--5-5-5-----5--5-5-5-----|----5--5-5-5-----5--5-5-5-----|
                In the heat and the rain         With whips and chains



Guitar 1
-----------------------------|------------------------------|
-----------------------------|------------------------------|
-----------------------------|------------------------------|
-----------------------------|------------------------------|
------10--9-7---5------------|-------10--9-7---5------------|
-----------------------------|------------------------------| 
Guitar 2                     |                              |
-----------------------------|------------------------------|
-----------------------------|------------------------------|
-----------------------------|------------------------------|
-----------------------------|------------------------------|
-----------------------------|------------------------------|
----3--3-3-3-----3--3-3-3----|----3--3-3-3-----3--3-3-3-----|
                   To see him fly                 So many die


                                                      
Guitar 1
-----------------------------|------------------------------|
-----------------------------|------------------------------|
-----------------------------|------------------------------|
-----------------------------|------------------------------|
------12--10-9---7-----------|-------12--10-9---7-----------|
-----------------------------|------------------------------|
Guitar 2                     |                              |
-----------------------------|------------------------------|
-----------------------------|------------------------------|
-----------------------------|------------------------------|
-----------------------------|------------------------------|
-----------------------------|------------------------------|
---5--5-5-5-----5--5-5-5-----|----5--5-5-5-----5--5-5-5-----|
               We built a tower of stone          With  our flesh and bone


Guitar 1
-----------------------------|------------------------------|------------------|
-----------------------------|------------------------------|------------------|
-----------------------------|------------------------------|------------------|
-----------------------------|------------------------------|---------------3--|
------10--9-7---5------------|-------10--9-7---5------------|--7----5----5--5--|
-----------------------------|------------------------------|--9----7----3-----|
Guitar 2                     |                              |
-----------------------------|------------------------------|------------------|
-----------------------------|------------------------------|------------------|
-----------------------------|------------------------------|--4----2-------5--|
-----------------------------|------------------------------|--4----2----5--5--|
-----------------------------|------------------------------|--2----0----5--3--|
---3--3-3-3-----3--3-3-3-----|----3--3-3-3-----3--3-3-3-----|------------3-----|
                To see him fly                But we don't know why


Guitar 1 and 2 play same again                                                               
-------------------|------------------|-----------------------------|
-------------------|------------------|-----------------------------|
--7----------------|------------------|-----------------------------|
--7----------------|------------------|-----------------------------|
--5----------------|------------------|-----5-6-7~--------5-6-7~----|
-------------------|------------------|--0-------------0------------|
     Now where do we goooooooooooooooooooooooooooooooooooooo

                                                      
----------------------------|----------------------------|
----------------------------|----------------------------|
----------------------------|----------------------------|
------------------5--4------|----------------------------|
-----5-6-7~------------5~---|-----5-6-7~-------5-6-7~----|
--0------------0------------|--0------------0------------|


                                                                 
----------------------------------------|------------------------|
----------------------------------------|------------------------|
----------------------------------------|------------------------|
------------------5-4---4---------------|------------------------|
-----5-6-7--5-6-7-----7---7-5---5-------|----5-------------------|
--0---------------------------7---7-7-6-|--5-3-------------3-2-1-|


                                                      
----------------------------|----------------------------|
----------------------------|----------------------------|
----------------------------|----------------------------|
----------------------------|------------------5--4------|
-----5-6-7~-------5-6-7~----|-----5-6-7~------------5~---|
--0------------0------------|--0------------0------------|
    Hot wind moving fast across the desert

                                                      
----------------------------|----------------------------|
----------------------------|----------------------------|
----------------------------|----------------------------|
----------------------------|------------------5--4------|
-----5-6-7~-------5-6-7~----|-----5-6-7~------------5~---|
--0------------0------------|--0------------0------------|
    We feel that our time has arived 

                                                      
----------------------------|----------------------------|
----------------------------|----------------------------|
----------------------------|----------------------------|
----------------------------|------------------5--4------|
-----5-6-7~-------5-6-7~----|-----5-6-7~------------5~---|
--0------------0------------|--0------------0------------|
  The world spins as we put his dream together

                                                                            
----------------------------|-------------------------|----------------------|
----------------------------|-------------------------|----------------------|
----------------------------|-------------------------|----------------------|
----------------------------|-------------------------|-----------------5----|
-----5-6-7~-------5-6-7~----|-----5-6-7--5-6-7--------|--4----5----7----3----|
--0------------0------------|--0----------------------|--2----3----5---------|
  A tower of stone to take him straight to the sky       Oh I see his face

                                                                     
Guitar 1                                                                     
--------------------------|-------------------------|--------------------------|
--------------------------|-------------------------|--------------------------|
----4--4--------4--4------|----4--4-----4--4/5------|----4--4-------4--4-------|
----4--4--------4--4------|----4--4-----4--4/5------|----4--4-------4--4-------|
----2--2--------2--2------|----2--2-----2--2/3------|----2--2-------2--2-------|
--------------------------|-------------------------|--------------------------|
Guitar 2                  |                         |                          
-----------------------2--|-------------------------|-----------------------5--|
--0--1--0--4--0--1--0-----|--0--1--0-1-0---0--------|--0--1--0--4--0--1--0-----|
--------------------------|--------------2----------|--------------------------|
--------------------------|-------------------------|--------------------------|
--------------------------|-------------------------|--------------------------|
--------------------------|-------------------------|--------------------------|
             Where  is  your   star                    Is it far,  is it far    


Guitar 1                                                                     
-------------------------|--------------------------|-------------------------|
-------------------------|--------------------------|-------------------------|
----4--4--------4-4/5----|-----4--4-------4--4------|---4--4------4-4/5-------|
----4--4--------4-4/5----|-----4--4-------4--4------|---4--4------4-4/5-------|
----2--2--------2-2/3----|-----2--2-------2--2------|---2--2------2-2/3-------|
-------------------------|--------------------------|-------------------------|
Guitar 2                 |                          |                         
----3--2-3-2-------------|-----------------------2--|-------------------------|
-------------1-0-----1---|--0--1--0--4--0--1--0-----|--0--1--0-1-0---0--------|
-------------------------|--------------------------|--------------2----------|
-------------------------|--------------------------|-------------------------|
-------------------------|--------------------------|-------------------------|
-------------------------|--------------------------|-------------------------|
Is  it far                         When do we leave      I beleive      



Guitar 1                                                                    
--------------------------|-------------------------|----------------------|
--------------------------|-------------------------|----------------------|
---4--4-------4--4--------|----4--4-------4---------|----------------------|
---4--4-------4--4--------|----4--4-------4---------|----------------------|
---2--2-------2--2--------|----2--2-------2---------|---5---7----10----9---|
--------------------------|-------------------------|----------------------|
Guitar 2                  |                         |                      
-----------------------5--|----3--2-3-2-------------|----------------------|
--0--1--0--4--0--1--0-----|-------------1-0-----1---|----------------------|
--------------------------|-------------------------|----------------------|
--------------------------|-------------------------|----------------------|
--------------------------|-------------------------|-------0----3------2--|
--------------------------|-------------------------|--3-------------------|
               Yes  I believe



Guitar 1
-----------------------------|------------------------------|
-----------------------------|------------------------------|
-----------------------------|------------------------------|
-----------------------------|------------------------------|
------12--10-9---7-----------|-------12--10-9---7-----------|
-----------------------------|------------------------------|
Guitar 2                     |                              |
-----------------------------|------------------------------|
-----------------------------|------------------------------|
-----------------------------|------------------------------|
-----------------------------|------------------------------|
-----------------------------|------------------------------|
---5--5-5-5-----5--5-5-5-----|----5--5-5-5-----5--5-5-5-----|
                In the heat and the rain         With whips and chains



Guitar 1
-----------------------------|------------------------------|
-----------------------------|------------------------------|
-----------------------------|------------------------------|
-----------------------------|------------------------------|
------10--9-7---5------------|-------10--9-7---5------------|
-----------------------------|------------------------------| 
Guitar 2                     |                              |
-----------------------------|------------------------------|
-----------------------------|------------------------------|
-----------------------------|------------------------------|
-----------------------------|------------------------------|
-----------------------------|------------------------------|
----3--3-3-3-----3--3-3-3----|----3--3-3-3-----3--3-3-3-----|
                   To see him fly                 So many die


                                                      
Guitar 1
-----------------------------|------------------------------|
-----------------------------|------------------------------|
-----------------------------|------------------------------|
-----------------------------|------------------------------|
------12--10-9---7-----------|-------12--10-9---7-----------|
-----------------------------|------------------------------|
Guitar 2                     |                              |
-----------------------------|------------------------------|
-----------------------------|------------------------------|
-----------------------------|------------------------------|
-----------------------------|------------------------------|
-----------------------------|------------------------------|
---5--5-5-5-----5--5-5-5-----|----5--5-5-5-----5--5-5-5-----|
               We built a tower of stone          With  our flesh and bone


Guitar 1
-----------------------------|------------------------------|------------------|
-----------------------------|------------------------------|------------------|
-----------------------------|------------------------------|------------------|
-----------------------------|------------------------------|---------------3--|
------10--9-7---5------------|-------10--9-7---5------------|--7----5----5--5--|
-----------------------------|------------------------------|--9----7----3-----| 
Guitar 2                     |                              |
-----------------------------|------------------------------|------------------|
-----------------------------|------------------------------|------------------|
-----------------------------|------------------------------|--4----2-------5--|
-----------------------------|------------------------------|--4----2----5--5--|
-----------------------------|------------------------------|--2----0----5--3--|
---3--3-3-3-----3--3-3-3-----|----3--3-3-3-----3--3-3-3-----|------------3-----|
                To see him fly                But we don't know why


                                                              
-------------------|------------------|
-------------------|------------------|
--7----------------|------------------|
--7----------------|------------------|
--5----------------|------------------|
-------------------|------------------|
     Now where do we go
SOLO                                                           
-------------------|
-------------------|
--4~---------------|
-------------------|
-------------------|
-------------------|


------------------------|---------------------|------------------------|
------------------------|---------------------|----7----8--7--8--7--5--|
------4--5--4--9--8--5--|--4h5p4~-------------|------------------------|
------------------------|---------------------|------------------------|
------------------------|---------------------|------------------------|
------------------------|---------------------|------------------------|


                                                                    
--------------------|-----------------------|----------------------|
--7/----------------|-----------------------|----------------------|
-----------4--------|------4/---16----14----|--14----16~-----------|
--------------------|-----------------------|----------------------|
--------------------|-----------------------|----------------------|
--------------------|-----------------------|----------------------|


                                                                  
----14----15--14--13--14--13--|--14--13--14--13--14--13--14--13--|
------------------------------|----------------------------------|
------------------------------|----------------------------------|
------------------------------|----------------------------------|
------------------------------|----------------------------------|
------------------------------|----------------------------------|


                                           
--14/-----------------|-------------------|
----------------------|-------------------|
----------------4--5--|--4~---------------|
----------------------|-------------------|
----------------------|-------------------|
----------------------|-------------------|


                                                               
------------------------------------------|-------------------|
----5--4h5p4------------------------------|-------------------|
-------------5-4h5p4---4h5p4---4h5p4---4~-|--------------4----|
---------------------7-------7-------7----|-------------------|
------------------------------------------|-------------------|
------------------------------------------|-------------------|


                                      
-------------------------------------|
-------4-5-4-5-4-7-5-4-4-------4-5-4-|
----5--------------------5-4-5-------|
-------------------------------------|
-------------------------------------|
-------------------------------------|


                                                      
--------------------------------------------------3--|
--------4-5h7p5p4-------4-5-4---------4-5-4-5--5-----|
--5-4-5-----------5-4-5-------5p4-5p4----------------|
-----------------------------------------------------|
-----------------------------------------------------|
-----------------------------------------------------|


                                                               
--5-3-0h5p3p0h5p3p0h5p3p0h5p3p0h5p3p0-5p3p0-5p3p0-5p3p0-5p3p0-|
--------------------------------------------------------------|
--------------------------------------------------------------|
--------------------------------------------------------------|
--------------------------------------------------------------|
--------------------------------------------------------------|
(Very fast part)

                                                                 
--5p3p0h5p3p0h5p3p0h5p3p0-5p3p0-5p3p0-2-0-3-0-2-0-3-0-2-0-3-0-2-|
----------------------------------------------------------------|
----------------------------------------------------------------|
----------------------------------------------------------------|
----------------------------------------------------------------|
----------------------------------------------------------------|
                                      (climb to 18th fret)

                                                                   
--0-3-0-2-0-3-0-2-0-3-0-2-0-3-0-2-0-3-0-2-0-3-5-3-2-0-2-0-3-0-0-5-|
------------------------------------------------------------------|
------------------------------------------------------------------|
------------------------------------------------------------------|
------------------------------------------------------------------|
------------------------------------------------------------------|


                                                                   
--7-0-7/5-0-7/5-0-7p5-0-7/5-0-7/5-0-8p7-0-7p5-0-8p7-0-7p5-0-7p0-0-|
------------------------------------------------------------------|
------------------------------------------------------------------|
------------------------------------------------------------------|
------------------------------------------------------------------|
------------------------------------------------------------------|


                                                                    
--7-10-0-0-10-7-10-0-10-0-7-0-7-0-8-0-7-0-8-0-7-0-8-0-10-0-12-0-12-|
-------------------------------------------------------------------|
-------------------------------------------------------------------|
-------------------------------------------------------------------|
-------------------------------------------------------------------|
-------------------------------------------------------------------|


                                                                                
--13-12-10-12-10-13-12-10-12-10-13-12-10-13-0-12-15-13-12-13-12-15-13-12-13-12-|
-------------------------------------------------------------------------------|
-------------------------------------------------------------------------------|
-------------------------------------------------------------------------------|
-------------------------------------------------------------------------------|
-------------------------------------------------------------------------------|


                                                               
--13-12-13-12-13-15-17-17-17-17-17-17-17-17-17-17-18-18-18-18-|
--------------------------------------------------------------|
--------------------------------------------------------------|
--------------------------------------------------------------|
--------------------------------------------------------------|
--------------------------------------------------------------|
                     (slows down slightly)

                                                                            
--17b---17b---17b---17b---|--17b17b17b17b17r-14-15-15-18-18-18-18-15-15-15-|
--------------------------|------------------------------------------------|
--------------------------|------------------------------------------------|
--------------------------|------------------------------------------------|
--------------------------|------------------------------------------------|
--------------------------|------------------------------------------------|


                                   
--15-17-17-17r----15-17-17-17r----|
----------------------------------|
----------------------------------|
----------------------------------|
----------------------------------|
----------------------------------|


                                                      
--15-17-15h17p15-14-15-14-12-12-14-12-15-14-12-15-14-|
-----------------------------------------------------|
-----------------------------------------------------|
-----------------------------------------------------|
-----------------------------------------------------|
-----------------------------------------------------|


                                                                     
--14-15-14h15p14h15p14h15p14h15p14----14----15--14------14----14----|
-----------------------------------17----17---------17-----17----17-|
--------------------------------------------------------------------|
--------------------------------------------------------------------|
--------------------------------------------------------------------|
--------------------------------------------------------------------|


                                                                      
--14--13-14p13h14p13h14p13h14p13h14p13h14p13h14p13h14p13h14p13-14/---|
---------------------------------------------------------------------|
---------------------------------------------------------------------|
---------------------------------------------------------------------|
---------------------------------------------------------------------|
---------------------------------------------------------------------|


                                                    
------------------------|--------------------------|
------------------------|--------------------------|
------------------------|--------11----12----14----|
--7----9----10----12----|--14----------------------|
------------------------|--------------------------|
------------------------|--------------------------|


                                                   
--------------------------------------------------|
--12-13-12----12-13-12-15-13-12-13----12-13-12----|
-----------14----------------------14----------14-|
--------------------------------------------------|
--------------------------------------------------|
--------------------------------------------------|


                                                                          
-----------------------14----14----14----14-----|------------------------|
--12-13-12----12-13-12----12----12----12----12/-|------------------------|
-----------14-----------------------------------|------------------------|
------------------------------------------------|--7----9----10----12----|
------------------------------------------------|------------------------|
------------------------------------------------|------------------------|


                                                      
--------------------------|--------------------------|
--------------------------|--------------------------|
--------11----12----14----|--------------------12----|
--14----------------------|--12----14----16----------|
--------------------------|--------------------------|
--------------------------|--------------------------|


                                                      
--------------------------|--------------------17----|
--------------------15----|--17----19----20----------|
--14----16----17----------|--------------------------|
--------------------------|--------------------------|
--------------------------|--------------------------|
--------------------------|--------------------------|


                                             
--20b---20b-20b---20b-20-20b20b20b20b20b-20-20b\0---------|
----------------------------------------------------------|
----------------------------------------------------------|
----------------------------------------------------------|
----------------------------------------------------------|
----------------------------------------------------------|
(High squell bit slide works better)

------------------|
------------------|
----DRUMS---------|
------------------|
------------------|
------------------|


                                                      
----------------------------|----------------------------|
----------------------------|----------------------------|
----------------------------|----------------------------|
----------------------------|------------------5--4------|
-----5-6-7~-------5-6-7~----|-----5-6-7~------------5~---|
--0------------0------------|--0------------0------------|
   All eyes see the figure of the wizard  

                                                      
----------------------------|----------------------------|
----------------------------|----------------------------|
----------------------------|----------------------------|
----------------------------|------------------5--4------|
-----5-6-7~-------5-6-7~----|-----5-6-7~------------5~---|
--0------------0------------|--0------------0------------|
   As  he  climbs  to the top of the world 

                                                      
----------------------------|----------------------------|
----------------------------|----------------------------|
----------------------------|----------------------------|
----------------------------|------------------5--4------|
-----5-6-7~-------5-6-7~----|-----5-6-7~------------5~---|
--0------------0------------|--0------------0------------|
   No sound as he falls instead of rising
                                                                            
----------------------------|-------------------------|----------------------|
----------------------------|-------------------------|----------------------|
----------------------------|-------------------------|----------------------|
----------------------------|-------------------------|-----------------5----|
-----5-6-7v-------5-6-7v----|-----5-6-7--5-6-7--------|--4----5----7----3----|
--0------------0------------|--0----------------------|--2----3----5---------|
  Time standing still then theres blood on the sand       Oh I see his face

                                                                     
Guitar 1                                                                     
--------------------------|-------------------------|--------------------------|
--------------------------|-------------------------|--------------------------|
----4--4--------4--4------|----4--4-----4--4/5------|----4--4-------4--4-------|
----4--4--------4--4------|----4--4-----4--4/5------|----4--4-------4--4-------|
----2--2--------2--2------|----2--2-----2--2/3------|----2--2-------2--2-------|
--------------------------|-------------------------|--------------------------|
Guitar 2                  |                         |                          
-----------------------2--|-------------------------|-----------------------5--|
--0--1--0--4--0--1--0-----|--0--1--0-1-0---0--------|--0--1--0--4--0--1--0-----|
--------------------------|--------------2----------|--------------------------|
--------------------------|-------------------------|--------------------------|
--------------------------|-------------------------|--------------------------|
--------------------------|-------------------------|--------------------------|
             Where  was  your   star                    was it far,  was it far    


Guitar 1                                                                     
-------------------------|--------------------------|-------------------------|
-------------------------|--------------------------|-------------------------|
----4--4--------4-4/5----|-----4--4-------4--4------|---4--4------4-4/5-------|
----4--4--------4-4/5----|-----4--4-------4--4------|---4--4------4-4/5-------|
----2--2--------2-2/3----|-----2--2-------2--2------|---2--2------2-2/3-------|
-------------------------|--------------------------|-------------------------|
Guitar 2                 |                          |                         |
----3--2-3-2-------------|-----------------------2--|-------------------------|
-------------1-0-----1---|--0--1--0--4--0--1--0-----|--0--1--0-1-0---0--------|
-------------------------|--------------------------|--------------2----------|
-------------------------|--------------------------|-------------------------|
-------------------------|--------------------------|-------------------------|
-------------------------|--------------------------|-------------------------|
was it far?                         When did we leave?      We beleived      



Guitar 1                                                                    
--------------------------|-------------------------|----------------------|
--------------------------|-------------------------|----------------------|
---4--4-------4--4--------|----4--4-------4---------|----------------------|
---4--4-------4--4--------|----4--4-------4---------|----------------------|
---2--2-------2--2--------|----2--2-------2---------|---5---7----10----9---|
--------------------------|-------------------------|----------------------|
Guitar 2
-----------------------5--|----3--2-3-2-------------|----------------------|
--0--1--0--4--0--1--0-----|-------------1-0-----1---|----------------------|
--------------------------|-------------------------|----------------------|
--------------------------|-------------------------|----------------------|
--------------------------|-------------------------|-------0----3------2--|
--------------------------|-------------------------|--3-------------------|
     We  believed          We believed.



Guitar 1
-----------------------------|------------------------------|
-----------------------------|------------------------------|
-----------------------------|------------------------------|
-----------------------------|------------------------------|
------12--10-9---7-----------|-------12--10-9---7-----------|
-----------------------------|------------------------------|
Guitar 2                     |                              |
-----------------------------|------------------------------|
-----------------------------|------------------------------|
-----------------------------|------------------------------|
-----------------------------|------------------------------|
-----------------------------|------------------------------|
---5--5-5-5-----5--5-5-5-----|----5--5-5-5-----5--5-5-5-----|
                In the heat and rain         With whips and chains



Guitar 1
-----------------------------|------------------------------|
-----------------------------|------------------------------|
-----------------------------|------------------------------|
-----------------------------|------------------------------|
------10--9-7---5------------|-------10--9-7---5------------|
-----------------------------|------------------------------|
Guitar 2                     |                              |
-----------------------------|------------------------------|
-----------------------------|------------------------------|
-----------------------------|------------------------------|
-----------------------------|------------------------------|
-----------------------------|------------------------------|
----3--3-3-3-----3--3-3-3----|----3--3-3-3-----3--3-3-3-----|
                   To see him fly                 So many die


                                                      
Guitar 1
-----------------------------|------------------------------|
-----------------------------|------------------------------|
-----------------------------|------------------------------|
-----------------------------|------------------------------|
------12--10-9---7-----------|-------12--10-9---7-----------|
-----------------------------|------------------------------|
Guitar 2                     |                              |
-----------------------------|------------------------------|
-----------------------------|------------------------------|
-----------------------------|------------------------------|
-----------------------------|------------------------------|
-----------------------------|------------------------------|
---5--5-5-5-----5--5-5-5-----|----5--5-5-5-----5--5-5-5-----|
               We build a tower of stone          With  our flesh and bone


Guitar 1
-----------------------------|------------------------------|
-----------------------------|------------------------------|
-----------------------------|------------------------------|
-----------------------------|------------------------------|
------10--9-7---5------------|-------10--9-7---5------------|
-----------------------------|------------------------------|
Guitar 2                     |                              |
-----------------------------|------------------------------|
-----------------------------|------------------------------|
-----------------------------|------------------------------|
-----------------------------|------------------------------|
-----------------------------|------------------------------|
---3--3-3-3-----3--3-3-3-----|----3--3-3-3-----3--3-3-3-----|
                To see him fly                    But  why

Guitar 1
-----------------------------|------------------------------|
-----------------------------|------------------------------|
-----------------------------|------------------------------|
-----------------------------|------------------------------|
------12--10-9---7-----------|-------12--10-9---7-----------|
-----------------------------|------------------------------|
Guitar 2                     |                              |
-----------------------------|------------------------------|
-----------------------------|------------------------------|
-----------------------------|------------------------------|
-----------------------------|------------------------------|
-----------------------------|------------------------------|
---5--5-5-5-----5--5-5-5-----|----5--5-5-5-----5--5-5-5-----|
               In all the rain          With all the chains

Guitar 1
-----------------------------|------------------------------|
-----------------------------|------------------------------|
-----------------------------|------------------------------|
-----------------------------|------------------------------|
------10--9-7---5------------|-------10--9-7---5------------|
-----------------------------|------------------------------|
Guitar 2                     |                              |
-----------------------------|------------------------------|
-----------------------------|------------------------------|
-----------------------------|------------------------------|
-----------------------------|------------------------------|
-----------------------------|------------------------------|
---3--3-3-3-----3--3-3-3-----|----3--3-3-3-----3--3-3-3-----|
                did so many die                    just to see him fly

Guitar 1
-----------------------------|------------------------------|
-----------------------------|------------------------------|
-----------------------------|------------------------------|
-----------------------------|------------------------------|
------12--10-9---7-----------|-------12--10-9---7-----------|
-----------------------------|------------------------------|
Guitar 2                     |                              |
-----------------------------|------------------------------|
-----------------------------|------------------------------|
-----------------------------|------------------------------|
-----------------------------|------------------------------|
-----------------------------|------------------------------|
---5--5-5-5-----5--5-5-5-----|----5--5-5-5-----5--5-5-5-----|
               Look at my flesh and bone          


Guitar 1
-----------------------------|------------------------------|
-----------------------------|------------------------------|
-----------------------------|------------------------------|
-----------------------------|------------------------------|
------10--9-7---5------------|-------10--9-7---5------------|
-----------------------------|------------------------------| 
Guitar 2                     |                              |
-----------------------------|------------------------------|
-----------------------------|------------------------------|
-----------------------------|------------------------------|
-----------------------------|------------------------------|
-----------------------------|------------------------------|
---3--3-3-3-----3--3-3-3-----|----3--3-3-3-----3--3-3-3-----|
Now look look look Look look at this tower of stone               

Guitar 1
-----------------------------|------------------------------|
-----------------------------|------------------------------|
-----------------------------|------------------------------|
-----------------------------|------------------------------|
------12--10-9---7-----------|-------12--10-9---7-----------|
-----------------------------|------------------------------|
Guitar 2                     |                              |
-----------------------------|------------------------------|
-----------------------------|------------------------------|
-----------------------------|------------------------------|
-----------------------------|------------------------------|
-----------------------------|------------------------------|
---5--5-5-5-----5--5-5-5-----|----5--5-5-5-----5--5-5-5-----|
              I see a rainbow rising


Guitar 1
-----------------------------|------------------------------|
-----------------------------|------------------------------|
-----------------------------|------------------------------|
-----------------------------|------------------------------|
------10--9-7---5------------|-------10--9-7---5------------|
-----------------------------|------------------------------|
Guitar 2                     |                              |
-----------------------------|------------------------------|
-----------------------------|------------------------------|
-----------------------------|------------------------------|
-----------------------------|------------------------------|
-----------------------------|------------------------------|
---3--3-3-3-----3--3-3-3-----|----3--3-3-3-----3--3-3-3-----|
               look there on the horizon                




Guitar 1
-----------------------------|------------------------------|
-----------------------------|------------------------------|
-----------------------------|------------------------------|
-----------------------------|------------------------------|
------12--10-9---7-----------|-------12--10-9---7-----------|
-----------------------------|------------------------------|
Guitar 2                     |                              |
-----------------------------|------------------------------|
-----------------------------|------------------------------|
-----------------------------|------------------------------|
-----------------------------|------------------------------|
-----------------------------|------------------------------|
---5--5-5-5-----5--5-5-5-----|----5--5-5-5-----5--5-5-5-----|
           And i'm comming home          comming home


Guitar 1
-----------------------------|------------------------------|
-----------------------------|------------------------------|
-----------------------------|------------------------------|
-----------------------------|------------------------------|
------10--9-7---5------------|-------10--9-7---5------------|
-----------------------------|------------------------------| 
Guitar 2                     |                              |
-----------------------------|------------------------------|
-----------------------------|------------------------------|
-----------------------------|------------------------------|
-----------------------------|------------------------------|
-----------------------------|------------------------------|
---3--3-3-3-----3--3-3-3-----|----3--3-3-3-----3--3-3-3-----|
                comming home

Guitar 1
-----------------------------|------------------------------|
-----------------------------|------------------------------|
-----------------------------|------------------------------|
-----------------------------|------------------------------|
------12--10-9---7-----------|-------12--10-9---7-----------|
-----------------------------|------------------------------|
Guitar 2                     |                              |
-----------------------------|------------------------------|
-----------------------------|------------------------------|
-----------------------------|------------------------------|
-----------------------------|------------------------------|
-----------------------------|------------------------------|
---5--5-5-5-----5--5-5-5-----|----5--5-5-5-----5--5-5-5-----|
         Time is standing still   You give me back my will

Guitar 1
-----------------------------|------------------------------|
-----------------------------|------------------------------|
-----------------------------|------------------------------|
-----------------------------|------------------------------|
------10--9-7---5------------|-------10--9-7---5------------|
-----------------------------|------------------------------| 
Guitar 2                     |                              |
-----------------------------|------------------------------|
-----------------------------|------------------------------|
-----------------------------|------------------------------|
-----------------------------|------------------------------|
-----------------------------|------------------------------|
---3--3-3-3-----3--3-3-3-----|----3--3-3-3-----3--3-3-3-----|
        Ohhh     Ohhhh     Ohhhh    Ohhhh    ohhhhhh


Guitar 1
-----------------------------|------------------------------|
-----------------------------|------------------------------|
-----------------------------|------------------------------|
-----------------------------|------------------------------|
------12--10-9---7-----------|-------12--10-9---7-----------|
-----------------------------|------------------------------|
Guitar 2                     |                              |
-----------------------------|------------------------------|
-----------------------------|------------------------------|
-----------------------------|------------------------------|
-----------------------------|------------------------------|
-----------------------------|------------------------------|
---5--5-5-5-----5--5-5-5-----|----5--5-5-5-----5--5-5-5-----|
              going home        I'm going home


Guitar 1
-----------------------------|------------------------------|
-----------------------------|------------------------------|
-----------------------------|------------------------------|
-----------------------------|------------------------------|
------10--9-7---5------------|-------10--9-7---5------------|
-----------------------------|------------------------------|
Guitar 2                     |                              |
-----------------------------|------------------------------|
-----------------------------|------------------------------|
-----------------------------|------------------------------|
-----------------------------|------------------------------|
-----------------------------|------------------------------|
---3--3-3-3-----3--3-3-3-----|----3--3-3-3-----3--3-3-3-----|
        My eyes are bleeding      And my home is leaving here
	(not sure what he says there)

Guitar 1
-----------------------------|------------------------------|
-----------------------------|------------------------------|
-----------------------------|------------------------------|
-----------------------------|------------------------------|
------12--10-9---7-----------|-------12--10-9---7-----------|
-----------------------------|------------------------------|
Guitar 2                     |                              |
-----------------------------|------------------------------|
-----------------------------|------------------------------|
-----------------------------|------------------------------|
-----------------------------|------------------------------|
-----------------------------|------------------------------|
---5--5-5-5-----5--5-5-5-----|----5--5-5-5-----5--5-5-5-----|
           The place I know      But its not home


Guitar 1
-----------------------------|------------------------------|
-----------------------------|------------------------------|
-----------------------------|------------------------------|
-----------------------------|------------------------------|
------10--9-7---5------------|-------10--9-7---5------------|
-----------------------------|------------------------------| 
Guitar 2                     |                              |
-----------------------------|------------------------------|
-----------------------------|------------------------------|
-----------------------------|------------------------------|
-----------------------------|------------------------------|
-----------------------------|------------------------------|
---3--3-3-3-----3--3-3-3-----|----3--3-3-3-----3--3-3-3-----|
               Ohhhhhhhhhhhh


Guitar 1
-----------------------------|------------------------------|
-----------------------------|------------------------------|
-----------------------------|------------------------------|
-----------------------------|------------------------------|
------12--10-9---7-----------|-------12--10-9---7-----------|
-----------------------------|------------------------------|
Guitar 2                     |                              |
-----------------------------|------------------------------|
-----------------------------|------------------------------|
-----------------------------|------------------------------|
-----------------------------|------------------------------|
-----------------------------|------------------------------|
---5--5-5-5-----5--5-5-5-----|----5--5-5-5-----5--5-5-5-----|
               Take me there and give me back my will


Guitar 1
-----------------------------|------------------------------|
-----------------------------|------------------------------|
-----------------------------|------------------------------|
-----------------------------|------------------------------|
------10--9-7---5------------|-------10--9-7---5------------|
-----------------------------|------------------------------| 
Guitar 2                     |                              |
-----------------------------|------------------------------|
-----------------------------|------------------------------|
-----------------------------|------------------------------|
-----------------------------|------------------------------|
-----------------------------|------------------------------|
---3--3-3-3-----3--3-3-3-----|----3--3-3-3-----3--3-3-3-----|
         Ohhhh        Ohhhh      Ohhhhhhh

Guitar 1
-----------------------------|------------------------------|
-----------------------------|------------------------------|
-----------------------------|------------------------------|
-----------------------------|------------------------------|
------12--10-9---7-----------|-------12--10-9---7-----------|
-----------------------------|------------------------------|
Guitar 2                     |                              |
-----------------------------|------------------------------|
-----------------------------|------------------------------|
-----------------------------|------------------------------|
-----------------------------|------------------------------|
-----------------------------|------------------------------|
---5--5-5-5-----5--5-5-5-----|----5--5-5-5-----5--5-5-5-----|
          Im going home        I'm going home


Guitar 1
-----------------------------|------------------------------|
-----------------------------|------------------------------|
-----------------------------|------------------------------|
-----------------------------|------------------------------|
------10--9-7---5------------|-------10--9-7---5------------|
-----------------------------|------------------------------| 
Guitar 2                     |                              |
-----------------------------|------------------------------|
-----------------------------|------------------------------|
-----------------------------|------------------------------|
-----------------------------|------------------------------|
-----------------------------|------------------------------|
---3--3-3-3-----3--3-3-3-----|----3--3-3-3-----3--3-3-3-----|
           My eyes are bleeding and my home is leaving here
Guitar 1
-----------------------------|------------------------------|
-----------------------------|------------------------------|
-----------------------------|------------------------------|
-----------------------------|------------------------------|
------12--10-9---7-----------|-------12--10-9---7-----------|
-----------------------------|------------------------------|
Guitar 2                     |                              |
-----------------------------|------------------------------|
-----------------------------|------------------------------|
-----------------------------|------------------------------|
-----------------------------|------------------------------|
-----------------------------|------------------------------|
---5--5-5-5-----5--5-5-5-----|----5--5-5-5-----5--5-5-5-----|
           The place I know     but its not home


Guitar 1
-----------------------------|------------------------------|
-----------------------------|------------------------------|
-----------------------------|------------------------------|
-----------------------------|------------------------------|
------10--9-7---5------------|-------10--9-7---5------------|
-----------------------------|------------------------------| 
Guitar 2                     |                              |
-----------------------------|------------------------------|
-----------------------------|------------------------------|
-----------------------------|------------------------------|
-----------------------------|------------------------------|
-----------------------------|------------------------------|
---3--3-3-3-----3--3-3-3-----|----3--3-3-3-----3--3-3-3-----|
             Ohhhhhh (fades out)

~=Vibrato
h=Hammer on
p=Pull off
/=Slide up
\=Slide down
r=Release bend





Comments


Popular Rainbow tabs & chords
Black Sheep Of The Family Bass Tabs
Catch The Rainbow Bass Tabs
Gates Of Babylon Bass Tabs
Since Youve Been Gone 4 Bass Tabs
Since You've Been Gone Chords
All Night Long Tabs
Rainbow Eyes Tabs
Sensitive To Light Tabs
Sixteenth Century Greensleeves Tabs
Black Masquerade Ukulele


Song lyrics



↑ Back to top | Tablatures and chords are parodies/interpretations of the original songs. You may use it for private study, scholarship, research or language learning purposes only
© 2014 AZChords.com Contact us | Privacy policy | DMCA | Add/correct tabs | Request tabs | Top 50 tabs