» » »

Rainbow, Star Gazer Tabs (ver.1)

Artists:  A B C D E F G H I J K L M N O P Q R S T U V W X Y Z # 

Star Gazer Tabs (ver.1)

Rainbow Tabs
Rating:
0/5 (0 votes)
Star Gazer lessons Tabs too difficult? Try these video lessons and learn fast
                Tuning: Standard

| /  slide up
| \  slide down
| h  hammer-on
| p  pull-off
| v  vibrato


Gtr1
e|---------------------------------------------------------------------------|
B|---------------------------------------------------------------------------|
G|---------------------------------------------------------------------------|
D|--------------------------------------------5-4----------------------------|
A|-----5-6-7vvv-----5-6-7vvv-----5-6-7vvv---------5vvv-----------------------|
E|---0------------0------------0------------0--------------------------------|

e|---------------------------------------------------------------------------|
B|---------------------------------------------------------------------------|
G|---------------------------------------------------------------------------|
D|-------------------------------------------5-4---4-----------------5-------|
A|-----5-6-7vvv-----5-6-7vvv-----5-6-7-5-6-7-----7---7-5---5---------5-HOLD--|
E|---0------------0------------0-------------------------7---7-7-6-5-3-------|

Gtr2 (with effect)
e|---------------------------------------------------------------------------|
B|---------------------------------------------------------------------------|
G|---------------------------------------------------------------------------|
D|---7b9--9r7p5—-7p5-------5-7vvvvv------------------------------------------|
A|--------------------7p5----------------------------------------------------|
E|---------------------------------------------------------------------------|

Gtr1
e|---------------------------------------------------------------------------|
B|---------------------------------------------------------------------------|
G|---------------------------------------------------------------------------|
D|-------------------------5-7-----------------------------------------------|
A|-------------------------5-7-HOLD------------------------------------------|
E|-------------------------3-5-------------3-2-1---Straight-Into-Verse-------|

e|---------------------------------------------------------------------------|
B|---------------------------------------------------------------------------|
G|---------------------------------------------------------------------------|
D|--------------------------------------------5-4----------------------------|
A|-----5-6-7vvv-----5-6-7vvv-----5-6-7vvv---------5vvv-----------------------|
E|---0------------0------------0------------0--------------------------------|

e|---------------------------------------------------------------------------|
B|---------------------------------------------------------------------------|
G|---------------------------------------------------------------------------|
D|--------------------------------------------5-4----------------------------|
A|-----5-6-7vvv-----5-6-7vvv-----5-6-7vvv---------5vvv-----------------------|
E|---0------------0------------0------------0--------------------------------|

e|---------------------------------------------------------------------------|
B|---------------------------------------------------------------------------|
G|---------------------------------------------------------------------------|
D|--------------------------------------------5-4----------------------------|
A|-----5-6-7vvv-----5-6-7vvv-----5-6-7vvv---------5vvv-----------------------|
E|---0------------0------------0------------0--------------------------------|

e|---------------------------------------------------------------------------|
B|---------------------------------------------------------------------------|
G|---------------------------------------------------------------------------|
D|---------------------------------------------------------------------------|
A|-----5-6-7vvv-----5-6-7vvv-----5-6-7vvv-----5-6-7-5-6-7--------------------|
E|---0------------0------------0------------0--------------------------------|

e|---------------------------------------------------------------------------|
B|---------------------------------------------------------------------------|
G|---------------------------------------------------------------------------|
D|---------------9-9-------9-9---------9-9-----------9-9---------------------|
A|---------------9-9-------9-9---------9-9-----------9-9---------------------|
E|---2—-3--5--8--7-7-------7-7---------7-7-----------7-7---------------------|

Gtr2
e|---------------------------------------------------------------------------|
B|---------------------------------------------------------------------------|
G|--------------------8-----------11-----------------------------------------|
D|---------------10-9------9-10-9------9-10-9h10p9p7h9-------10vv------------|
A|---------------------------------------------------------------------------|
E|---------------------------------------------------------------------------|

Gtr1
e|---------------------------------------------------------------------------|
B|---------------------------------------------------------------------------|
G|---------------------------------------------------------------------------|
D|---------------9-9-------9-9---------9-9--------9-9------------------------|
A|---------------9-9-------9-9---------9-9--------9-9------------------------|
E|---------------7-7-------7-7---------7-7--------7-7------------------------|

Gtr2
e|---------------------------------------------------------------------------|
B|---------------------------------------------------------------------------|
G|----------------------8----------------------------------------------------|
D|---------------9-10-9----9-10-9-7----9-10-9vvp7h9vv--------10vv------------|
A|---------------------------------------------------------------------------|
E|---------------------------------------------------------------------------|

Gtr1
e|---------------------------------------------------------------------------|
B|---------------------------------------------------------------------------|
G|---------------------------------------------------------------------------|
D|----------------9-9---------9-9---------9-9---------9-9--------------------|
A|----------------9-9---------9-9---------9-9---------9-9--------------------|
E|----------------7-7---------7-7---------7-7---------7-7--------------------|

Gtr2
e|---------------------------------------------------------------------------|
B|---------------------------------------------------------------------------|
G|-----------------------8-----------11--------------------------------------|
D|----------------9-10-9------9-10-9------9-10-9h10p9p7h9-------10vv---------|
A|---------------------------------------------------------------------------|
E|---------------------------------------------------------------------------|

Gtr1
e|---------------------------------------------------------------------------|
B|---------------------------------------------------------------------------|
G|---------------------------------------------------------------------------|
D|----------------9-9---------9-9---------9-9-----------9--------------------|
A|----------------9-9---------9-9---------9-9-----------9-HOLD---------------|
E|----------------7-7---------7-7---------7-7-----------7--------------------|

Gtr2
e|---------------------------------------------------------------------------|
B|---------------------------------------------------------------------------|
G|-----------------------8---------------------------------------------------|
D|----------------9-10-9------9-10-9-7----9-10-9h10p9p7h9vvvv----------------|
A|---------------------------------------------------------------------------|
E|---------------------------------------------------------------------------|

Gtrs1 & 2 (bottom & top)
e|---------------------------------------------------------------------------|
B|---------------------------------------------------------------------------|
G|---------------------------------------------------------------------------|
D|----5--7—10vvv—-9-12-10p9-7vvv---12-10p9-7vvv---10-9p7-5vvv---10-9p7-5vvv--|
A|---------------------------------------------------------------------------|
E|----3--5—8vvv---7-10-8p7--5vvv---10-8p7--5vvv---8-7p5--3vvv---8-7p5--3vvv--|

e|---------------------------------------------------------------------------|
B|---------------------------------------------------------------------------|
G|---------------------------------------------------------------------------|
D|----12-10p9-7vvv---12-10p9-7vvv---10-9p7-5vvv---10-9p7-5vvv----------------|
A|---------------------------------------------------------------------------|
E|----10-8p7--5vvv---10-8p7--5vvv---8-7p5--3vvv---8-7p5--3vvv----------------|

Gtr1
e|---------------------------------------------------------------------------|
B|---------------------------------------------------------------------------|
G|--------------5-7------------7---------------------------------------------|
D|----9---7---5-5-7-HOLD-------7---------------------------------------------|
A|----9---7---5-3-5------------5---------------------------------------------|
E|----7---5---3---------------------------------12\--------------------------|

e|---------------------------------------------------------------------------|
B|---------------------------------------------------------------------------|
G|---------------------------------------------------------------------------|
D|--------------------------------------------5-4----------------------------|
A|-----5-6-7vvv-----5-6-7vvv-----5-6-7vvv---------5vvv-----------------------|
E|---0------------0------------0------------0--------------------------------|

e|---------------------------------------------------------------------------|
B|---------------------------------------------------------------------------|
G|---------------------------------------------------------------------------|
D|-----------------------------------------5-4---4-----------------5---------|
A|-----5-6-7vvv----5-6-7vvv----5-6-7-5-6-7-----7---7-5---5---------5HOLD-----|
E|---0-----------0-----------0-------------------------7---7-7-6-5-3----3-2-1|

Then Ritchie Plays the same set of riffs again until "now where do we go", 
at which time the solo begins

e|---------------------------------------------------------------------------|
B|---------------------------------------------------------------------------|
G|-------------------------9r8----------------9b11vv-b12r11b12r11—9b11r9-----|
D|---8b9vvvvvvvvvvv-9b10r9-----10—9b10r9vvv------------------------------9vvv|
A|---------------------------------------------------------------------------|
E|---------------------------------------------------------------------------|

I have neither the ability nor the inclination to put the whole solo down. 
If somebody else wants to tab the whole two minutes worth out, be my guest.
I've had enough of tabbing for one day.

After the solo he repeats riffs already shown above, except I think a third 
Guitar goes put for the last 2ish minutes playing

e|---------------------------------------------------------------------------|
B|---------------------------------------------------------------------------|
G|---------------------------------------------------------------------------|
D|--7---7-7-7---7-7-7---7-7-7---7-7--7---7-7-7---7-7-7---7-7-----------------|
A|--7---7-7-7---7-7-7---7-7-7---7-7--7---7-7-7---7-7-7---7-7-----------------|
E|--5---5-5-5---5-5-5---5-5-5---5-5--5---5-5-5---5-5-5---5-5-----------------|

e|---------------------------------------------------------------------------|
B|---------------------------------------------------------------------------|
G|---------------------------------------------------------------------------|
D|--5---5-5-5---5-5-5---5-5-5---5-5--5---5-5-5---5-5-5---5-5-----------------|
A|--5---5-5-5---5-5-5---5-5-5---5-5--5---5-5-5---5-5-5---5-5-----------------|
E|--3---3-3-3---3-3-3---3-3-3---3-3--3---3-3-3---3-3-3---3-3-----------------|


And that's the mightiest song in metal.
This is my first tab, and its is just how I hear it- 
so questions, comments, changes are welcome.

Dio's sings

High noon, oh I'd sell my soul for water
Nine years worth of breakin' my back
There's no sun in the shadow of the wizard
See how he glides, why he's lighter than air
Oh I see his face!

Where is your star?
Is it far, is it far, is it far?
When do we leave?
I believe, yes, I believe

In the heat and the rain
With the whips and chains
To see him fly
So many die
We built a tower of stone
With our flesh and bone
Just to see him fly
But don't know why
Now where do we go?

Hot wind, moving fast across the desert
We feel that our time has arrived
The world spins, while we put his dream together
A tower of stone to take him straight to the sky
Oh I see his face!

Where is your star?
Is it far, is it far, is it far?
When do we leave?
Hey, I believe, I believe

In the heat and the rain
With the whips and chains
Just to see him fly
Too many die
We built a tower of stone
With our flesh and bone
To see him fly
But we don't know why
Ooh, now where do we go

All eyes see the figure of the wizard
As he climbs to the top of the world
No sound, as he falls instead of rising
Time standing still, then there's blood on the sand
Oh I see his face!

Where was your star?
Was it far, was it far
When did we leave?
We believed, we believed, we believed

In heat and rain
With the whips and chains
To see him fly
So many died
We built a tower of stone
With our flesh and bone
To see him fly

But why
In all the rain
With all the chains
Did so many die
Just to see him fly

Look at my flesh and bone
Now, look, look, look, look, Look at the tower of stone
I see a rainbow rising
Look there, on the horizon
And I'm coming home, I'm coming home

Time is standing still
You, give back my will
Ooh ooh ooh ooh
Going home I'm going home

My eyes are bleeding
And my heart is weeping yeah
Where's my home?
Where's my home?
Ooh

Take me back
You, give me back my will
Ooh ooh ooh ooh

Going home
I'm going home

My eyes are bleeding
And my heart is weeping yeah
Where's my home?
Where's my home?

Take me back, take me back
Back to my home ooh, ooh, ooh
            

comments powered by Disqus
↑ Back to top | Rainbow Tabs for Star Gazer. Lyrics for acoustic guitar and electric guitar. Tablatures and chords are parodies/interpretations of the original songs. You may use it for private study, scholarship, research or language learning purposes only