» » »

Rainbow, Since You Ve Been Gone Tabs (ver.8)

Artists:  A B C D E F G H I J K L M N O P Q R S T U V W X Y Z # 

Since You Ve Been Gone Tabs (ver.8)

Rainbow Tabs
 Rating:
4/5 (4 votes)
Since You Ve Been Gone lessons Tabs too difficult? Try these video lessons and learn fast
1
                (Intro2)

Rainbow - Since You've Been Gone



Gtr I (E A D G B E) - 'Lead guitar'

 Intro
  Q=120
 4/4
  Gtr I
  E E E E E E E E E E E E E E E E E E E E E E E E E E E E E E E E E E
|-----------------|-----------------|-----------------|------------------|
|-----------------|-----------------|-----------------|------------------|
|-----------7-7---|9-9-9-----5-5----|---------7---9---|5---5-5-7-7-------|
|-5-5-5-----7-7---|9-9-9-----5-5---5|-5-5-----7---9---|5---5-5-7-7---5-5-|
|-5-5-5-----5-5---|7-7-7-----3-3---5|-5-5-----5---7---|3---3-3-5-5---5-5-|
|-3-3-3-----------|----------------3|-3-3-------------|--------------3-3-|


                                                              ~
  E E E E E E E E   E E E E E E E E   E E E E E E E E   E E E W
|-----------------|-----------------|-----------------|------------|
|-----------------|-----------------|-----------------|------------|
|-------7-7---9-9-|-9-----5-5-------|-------7---9---5-|---5-5/7----|
|-5-----7-7---9-9-|-9-----5-5---5-5-|-5-----7---9---5-|---5-5/7----|
|-5-----5-5---7-7-|-7-----3-3---5-5-|-5-----5---7---3-|---3-3/5----|
|-3---------------|-------------3-3-|-3---------------|------------|


Tablature Legend
----------------
 h   - hammer-on
 p   - pull-off
 b   - bend
 pb  - pre-bend
 r   - bend release (if no number after the r, then release immediately)
 /   - slide
  - natural harmonic
[n]  - artificial harmonic
n(n) - tapped harmonic
 ~   - vibrato
 T   - tap
 TP  - trem. picking
 PM  - palm muting
 =   - hold bend; also acts as connecting device for hammers/pulls
 <>  - volume swell (louder/softer)
 x   - on rhythm slash represents muted slash
 o   - on rhythm slash represents single note slash


***************************************************************************************
***************************************************************************************
            
Submit corrections

comments powered by Disqus
↑ Back to top | Rainbow Tabs for Since You Ve Been Gone. Lyrics for acoustic guitar and electric guitar. 1 Tablatures and chords are parodies/interpretations of the original songs. You may use it for private study, scholarship, research or language learning purposes only