>
 >
Miss Mistreated

Miss Mistreated Bass Tabs

Rainbow - Miss Mistreated chords, tabs, tablatures, lyrics

Guitar lessons | Add/correct | Request | Top 50 tabs Artists:  A B C D E F G H I J K L M N O P Q R S T U V W X Y Z 0-9

Miss Mistreated Bass Tabs – Rainbow

CD, Sheet music, Poster

Do you like Miss Mistreated? Share with your friends now
Bass Tabs
-------------------------------------------------------------------------------
                          Miss Mistreated - Rainbow
-------------------------------------------------------------------------------


Tuning: standard EADG

No bass under the short intro...

Verse 1:
G|---------------------------------------------------------------|
D|---------------------------------------------------------------|
A|-------------------------------5--------------5---5--7---------|
E|-5---7--7--7--7--7--7--7--7--7---7--7--7--7-7---7--------------|

G|---------------------------------------------------------------|
D|---------------------------------------------------------------|
A|------------------------------------------5---5----------------|
E|-7--7--7--7--7--7--7-7-7--7--7--7--7--7-7---7----5-------------|

G|---------------------------------------------------------------|
D|---------------------------------------------------------------|
A|--------------------------------------------5---5--7-----------|
E|-7--7--7--7-5-7--7--7--7--7-7-7--7--7--7--7---7----------------|

G|---------------------------------------------------------------|
D|---------------------------------------------------------------|
A|----------------------------7--------------5---5---------------|
E|-7--7--7--7--7--7--7--7-5-7---7--7--7--7-7---7----5------------|

Bridge:
G|---------------------------------------------------------------|
D|---------------------------------------------------------------|
A|-7---------5--7---------5--7-----------------------------------|
E|----0----7-------0----7-------0----3--0--1--3--5---------------|

G|---------------------------------------------------------------|
D|---------------------------------------------------------------|
A|-5-----------------5---5-------------------------5---5---------|
E|---7-7-7-7-7-7-7-7---7----5--7-7-7-7-7-7-7-7-7-7---7----5------|

Verse 2:
G|---------------------------------------------------------------|
D|---------------------------------------------------------------|
A|------------------------------------------5---5--7-------------|
E|-7--7--7--7--7--7--7-7-7--7--7--7--7--7-7---7------------------|

G|---------------------------------------------------------------|
D|---------------------------------------------------------------|
A|-------------------------------------------5---5---------------|
E|-7--7--7--7--7-7-7--7--7--7--7--7-7-7--7-7---7----5------------|

G|---------------------------------------------------------------|
D|---------------------------------------------------------------|
A|-------------------------------------------5---5--7------------|
E|-7--7--7--7-5-7--7--7--7--7-7-7--7--7--7-7---7-----------------|

G|---------------------------------------------------------------|
D|---------------------------------------------------------------|
A|----------------------------7--------------5---5---------------|
E|-7--7--7--7--7--7--7--7-5-7---7--7--7--7-7---7----5------------|

Bridge:
G|---------------------------------------------------------------|
D|---------------------------------------------------------------|
A|-7---------5--7---------5--7-----------------------------------|
E|----0----7-------0----7-------0----3--0--1--3--5---------------|

G|---------------------------------------------------------------|
D|---------------------------------------------------------------|
A|-----------------5---5-------------------------5---5-----------|
E|-7-7-7-7-7-7-7-7---7----5--7-7-7-7-7-7-7-7-7-7---7----5--------|

Chorus:
G|---------------------------------------------------------------|
D|---------------------------------------------------------------|
A|-5-5-5-5-5-5-5-5--------------------5---5-----------5---5------|
E|-----------------5-5-5-5-5-5-5--5/7---7----7\5--5/7---7----7\5-|

G|---------------------------------------------------------------|
D|-------------7-------------------------------------------------|
A|-5-5-5-5-5-5---5-------------7---------------------------------|
E|-----------------5-5-5-5-5-5---5-3-----------------------------|

Bridge, solo:
G|---------------------------------------------------------------|
D|---------------------------------------------------------------|
A|-----------------5---5-------------------------5---5-----------|x2
E|-7-7-7-7-7-7-7-7---7----5--7-7-7-7-7-7-7-7-7-7---7----5--------|

G|---------------------------------------------------------------|
D|---------------------------------------------------------------|
A|-----------------------2--2---2--2-----------------------------|
E|-3--3---3--3-2----2--2-------------5--5---5--5-----------------|

G|---------------------------------------------------------------|
D|---------------------------------------------------------------|
A|-------------------------2--2---2--2---------------------------|
E|-3--3---3--3-2--2---2--2-------------5--5---5--5---------------|

G|---------------------------------------------------------------|
D|----------------------------------------2----------------------|
A|-------------------------2--2---2--2------5-3-2----------------|
E|-3--3---3--3-2--2---2--2-------------5----------5--------------|

G|---------------------------------------------------------------|
D|--------------------------------------------------2-3----------|
A|-------------------------2--2---2-2-2-------2-3-5--------------|
E|-3--3---3--3-2--2---2--2--------------5-5-5--------------------|

G|--------------------------------------------------------5-7----|
D|-5-------------5-4-4--------------------------------4-7--------|
A|---5-----------------------------5---5----------5-7------------|
E|-----3--3-3-3---------2--2---5/7---7----7\5---7----------------|

Bridge:
G|---------------------------------------------------------------|
D|---------------------------------------------------------------|
A|-7---------5--7---------5--7-----------------------------------|
E|----0----7-------0----7-------0----3--0--1--3--5---------------|

G|---------------------------------------------------------------|
D|---------------------------------------------------------------|
A|-----------------5---5-------------------------5---5-----------|
E|-7-7-7-7-7-7-7-7---7----5--7-7-7-7-7-7-7-7-7-7---7----5--------|

Chorus:
G|---------------------------------------------------------------|
D|---------------------------------------------------------------|
A|-5----5--5----------5---5-----------5---5----------------------|
E|-----------5----5/7---7----7\5--5/7---7---7\5------------------|

G|--------------------------|
D|--------------------------|
A|-5---5-5--5-------7-------|
E|------------5---5---5-3---|

Outro:
G|---------------------------------------------------------------|
D|---------------------------------------------------------------|
A|---------------------------------------------------------------|
E|-3/-121212121212121212121212121212121212121212121212-12-12--12\|

(fade out...)
G|---------------------------------------------------------------|
D|---------------------------------------------------------------|
A|-----------------5---5-------------------------5---5-----------|x7
E|-7-7-7-7-7-7-7-7---7----5--7-7-7-7-7-7-7-7-7-7---7----5--------|

===============================================================================
Notes: 

If You have problems with this tab, write Me a mail what's wrong with it
instead of giving it a bad rating! It'd be better for everyone! Thx!


| /  slide up
| \  slide down
| h  hammer-on
| p  pull-off
| ~  vibrato
| +  harmonic
| x  Mute note
===============================================================================





Comments


Popular Rainbow tabs & chords
Catch The Rainbow Bass Tabs
Street Of Dreams Bass Tabs
Ill Never Cry Chords
A Light In The Black Tabs
Do You Close Your Eyes Tabs
Kill The King 1 Tabs
La Connection Intro Tabs
Since Youve Been Gone (Intro) Tabs
Bye Bye Baby Ukulele
Since Youve Been Gone Ukulele


Song lyrics



↑ Back to top | Tablatures and chords are parodies/interpretations of the original songs. You may use it for private study, scholarship, research or language learning purposes only
© 2014 AZChords.com Contact us | Privacy policy | DMCA | Add/correct tabs | Request tabs | Top 50 tabs