>
 >
Man On The Silver Mountain

Man On The Silver Mountain Guitar Tabs

Rainbow - Man On The Silver Mountain chords, tabs, tablatures, lyrics

Guitar lessons | Add/correct | Request | Top 50 tabs Artists:  A B C D E F G H I J K L M N O P Q R S T U V W X Y Z 0-9

Man On The Silver Mountain Guitar Tabs – Rainbow

CD, Sheet music, Poster

Do you like Man On The Silver Mountain? Share with your friends now
Bass TabsBass Tabs v2ChordsTabsTabs v2Tabs v3Ukulele
PROPS GO TO: Anton Belyakov

MAN ON THE SILVER MOUNTAIN(Blackmore/Dio)


RIFF:
|-----------------------------------------------------
|-----------------------------------------------------
|----------------3---------------------5--3-----------
|-----5--3--53--3--5--5--3--5---5--3-----------------
|-----5--3--5------3--5--5--3--5----------------------
|--3-------------------------------------------------- 

|-----------------------------------------------------
|-----------------------------------------------------
|-----------------------------------------------------
|----------------3------------------------------------
|-----5--3--5-----3--5--5--3--1-----------------------
|--3--------------------------------------------------





Comments


Popular Rainbow tabs & chords
All Night Long Bass Tabs
I Surrender Bass Tabs
Man On The Silver Mountain Bass Tabs
Street Of Dreams Bass Tabs
Lady Of The Lake Tabs
Man On The Silver Mountain 1 Tabs
Self Portrait Tabs
Stone Cold Tabs
Temple Of The King Tabs
Temple Of The King 3 Tabs


Song lyrics



↑ Back to top | Tablatures and chords are parodies/interpretations of the original songs. You may use it for private study, scholarship, research or language learning purposes only
© 2014 AZChords.com Contact us | Privacy policy | DMCA | Add/correct tabs | Request tabs | Top 50 tabs