» » »

Lady Of The Lake Tabs (ver.1)

Artists:  A B C D E F G H I J K L M N O P Q R S T U V W X Y Z # 

Lady Of The Lake Tabs (ver.1)

Rainbow
Rating:
4/5 (2 votes)

Hard to play? Try these video lessons and learn fast.
                Lady of the lake by rainbow

|------------------------------------------------------|
|--------------------------------------------8/-3------|
|--------------------------------------------7/-2------|
|-------2--------5--------2----4-3—2-------------------|
|------------------------------2-1-0-------------------|
|-0-0-0----0-0-0----0-0-0------------------------------|


|------------------------------------------------------|
|------------------------------------------------------|
|------------------------------------------------------|
|-------2--------5-------2-----------------------------|
|-----------------------------------2-3-5-3-2-0--------|
|-0-0-0----0-0-0----0-0-0------------------------------|

|------------------------------------------------------|
|------------3---------------------------3-------------|
|---0-----2--2------2------------0-----2-------0-------|
|---0—-0----------2-------2----2---2-0-------0-------2-|
|---------------0-------2----3---------------------2---|
|-3-------------------0--------------------3-----0-----|


|-------------------------------------------------------|
|---------3---------------------------------------------|
|---0---2-------------2---------------------------------|
|-----0-------------2--------------------7--7--7--------|
|-3---------3-2-3-0-----3-2-3-2-3-2-3-5--5--5--5--------|
|-------------------------------------------------------|
            
Hard to play? Try these video lessons and learn fast. | Correct




comments powered by Disqus
↑ Back to top | Tablatures and chords are parodies/interpretations of the original songs. You may use it for private study, scholarship, research or language learning purposes only