» » »

Rainbow, Do You Close Your Eyes Tabs (ver.1)

Artists:  A B C D E F G H I J K L M N O P Q R S T U V W X Y Z # 

Do You Close Your Eyes Tabs (ver.1)

Rainbow Tabs
 Rating:
4/5 (4 votes)
Do You Close Your Eyes lessons Tabs too difficult? Try these video lessons and learn fast
                (Intro)
intro:

E|-----------------------------|
B|-----------------------------|
G|-----------------------------|
D|---------7-5-------------7-5-|
A|-7-5-7---5-3-7---7-5-7---5-3-|
E|-5-3-5-------5---5-3-5-------|

Riff I:

E|-----------------------------|
B|-----------------------------|
G|-----------------------------|
D|---------7-5-------------7-5-|
A|-7-5-7---5-3-7---7-5-7---5-3-|
E|-5-3-5-------5---5-3-5-------|

Riff II:

E|-----------------------------|
B|-----------------------------|
G|-----------------------------|
D|--------7-5------------7---5-|
A|-7-5----5-3----7-5-----5---3-|
E|-5-3-----------5-3-----------|
            
Submit corrections

comments powered by Disqus
↑ Back to top | Rainbow Tabs for Do You Close Your Eyes. Lyrics for acoustic guitar and electric guitar. Tablatures and chords are parodies/interpretations of the original songs. You may use it for private study, scholarship, research or language learning purposes only