>
 >
Difficult To Cure

Difficult To Cure Guitar Tabs

Rainbow - Difficult To Cure chords, tabs, tablatures, lyrics

Guitar lessons | Add/correct | Request | Top 50 tabs Artists:  A B C D E F G H I J K L M N O P Q R S T U V W X Y Z 0-9

Difficult To Cure Guitar Tabs – Rainbow

CD, Sheet music, Poster

Do you like Difficult To Cure? Share with your friends now
Tabs

Ritchie Blackmore's version of Beethoven's 9th symphony.

I had nothing to do a few weeks ago, so I sat down to listen to dad's old records.
I found a lot of Deep Purple records and started listen to them,
and then I hear this song, and though: "Wow! What a great song!"
So I listen to it over and over again, and I never got tired of it!
So, I sat down, and tried to play it. After a few weeks I knew how to play it,
so I tabbed it down, so YOU can learn how to play it!
Good luck!

E|----------------|------------------------------------------------------------|
B|----------------|------------------------------------------------------------|
G|----9--7-5-7-9--|------------------------------------------------------------|
D|--7-------------|--5-7-8--2-3-5-----2-2-3-5-----2----------------------------|
A|----------------|---------------4-5---------4-5-----0-1---1-0-----1-0-----0--|
E|----------------|---------------------------------3-----3-----3-1-----1-3----|

E|--------------------------------|
B|--2hold—-2/7—-7/12—-12/19—(19)--|
G|--2hold—-2/7--7/12--12/19—(19)--|
D|--2hold—-2/7--7/12--12/19—(19)--|
A|--------------------------------|
E|--------------------------------|

E|--------------------------------------------------|--------------------------------------------------|
B|--------------------------------------------------|--------------------------------------------------|
G|--14-14-15-17-17--15-14-12-------12-14-14--12-12--|--14-14-15-17-17--15-14-12-------12-14-12---------|
D|---------------------------15-15------------------|---------------------------15-15-----------15-15--|
A|--------------------------------------------------|--------------------------------------------------|
E|--------------------------------------------------|--------------------------------------------------|

E|--------------------------------------------------------|
B|--------------------------------------------------------|
G|--12-12-14-----12-14-15-14----12-14-15-14-12----12------|
D|-----------15--------------15----------------15---------|
A|---------------------------------------------------15/--|
E|--------------------------------------------------------|

E|---------------------------------------------------15-----------0--------|
B|------------------------------------------13—15/17----17---17/------12/--|
G|--14-14-15-17-17--15-14-12-------12-14-12---------------------------12/--|
D|---------------------------15-15------------------------------------12/--|
A|-------------------------------------------------------------------------|
E|-------------------------------------------------------------------------|

E|-----------------------------------|-----------------------------------|
B|-----------------------------------|-----------------------------------|
G|--6-6-7-9-9--7-6-4-----4-6-6--4-4--|--6-6-7-9-9--7-6-4-----4-6-4-------|
D|-------------------7-7-------------|-------------------7-7--------7-7--|
A|-----------------------------------|-----------------------------------|
E|-----------------------------------|-----------------------------------|

E|--------------------------------------|-9----9----10-12-12--10-9-----------------|
B|--------------------------------------|--10---10-----------------12--10-10-12-14—|
G|--4-4-6---4-6-7-6---4-6-7-6-4---4-----|----9----9--------------------------------|
D|--------7---------7-----------7-------|------------------------------------------|
A|----------------------------------7/--|------------------------------------------|
E|--------------------------------------|------------------------------------------|

E|------------------------------|--12--|13-----13-----13------|--------|
B|--12-12-12-12-12-12-12-12-12--|------|--14-----14-----14----|--------|
G|------------------------------|------|----13-----13-----13--|--13----|
D|------------------------------|------|----------------------|--------|
A|------------------------------|------|----------------------|--------|
E|------------------------------|------|----------------------|--------|
 < ---------Repeat 1x--------- >        < -----Repeat 1x---------------| >

E|-------------------|--------------------------------------------------------------|
B|-------------------|--7-2-5-3-2---2-3/2-------------------------------------------|
G|--6-6-6-6-6-6-6-6--|------------4-------4-3-2---1--2/1---2-4/2--------------------|
D|-------------------|--------------------------4--------4-------4-3-2--------------|
A|-------------------|-------------------------------------------------4-3-2-0-0----|
E|-------------------|--------------------------------------------------------------|
 < ----Repeat 1x--------------------------------------------------------------------| >

E|-----------------------------------------------------------------------------|
B|-----------------------------------------------------------------------------|
G|--------------2-121-------------------4-----------------------7---676--------|
D|------4-----4-------4-1-474---4-4-7-4---7-4-7-6-4-6—7/6-4-7-7---9-----9-7-6--|
A|--2/4---4-4-----------------6------------------------------------------------|
E|-----------------------------------------------------------------------------|

E|---------------------------------------------------------------|
B|----------------------------------------------------------12/--|
G|----------------------7--676---6-6/7---797---7--11-9-11/9------|
D|----676---797---7--6---------9-------9-----9-------------------|
A|--9-----9-----9------------------------------------------------|
E|---------------------------------------------------------------|

E|-----9----9-12-9----12-10----10-9----9/10-9----10-9--------------------------------|
B|--10---12--------12-------12------12--------12------12-10-9----9-10/9--------------|
G|------------------------------------------------------------11--------11-10-11hold-|
D|-----------------------------------------------------------------------------------|
A|-----------------------------------------------------------------------------------|
E|-----------------------------------------------------------------------------------|

E|-------------------------------------------10----------------------------------------------------------|
B|--9--9-10/9--10-9--9--9-9—10/9--10-12-14-10--12-14/10-12-14/12-10-9----9-------------------------------|
G|---11------11----11-11--------11-----------------------------------11-9-11-9---------------------------|
D|----------------------------------------------------------------------------12-11-9-11-12/11-9-11hold--|
A|-------------------------------------------------------------------------------------------------------|
E|-------------------------------------------------------------------------------------------------------|

E|--------------------------------------------------------------------------------------|
B|-----------------7-----------------------------------------------------------7-----9--|
G|--11-11-11-11/9-----9--7-6-7/6---8-6-----------------------------------7---7---10-----|
D|-----11-11-11/9----------------9-----9-8--7---7-8/7----7-7-------7---7---9------------|
A|--------------------------------------------9-------10-------9-----9------------------|
E|--------------------------------------------------------------------------------------|

E|-----------------------7-----------------------------------------|
B|--787---7-7hold---10-7----10-9-7-9-------------------------------|
G|------9----------------------------9-----------------------------|
D|-------------------------------------9/---9-7hold---6/7—6/7------|
A|------------------------------------------------------------9—4--|
E|-----------------------------------------------------------------|

E|---------------------------------------------------------------|
B|---------------------------------------------------------------|
G|------------4---4-6-4-6-7-6-4---4------------------------------|
D|--4-6-7-6-7---7---------------7---7-6-7-6-4-6-4-------4hold----|
A|-------------------------------------------------7---7---------|
E|---------------------------------------------------------------|
 < ----------------------Repeat 1x-------------------------------| >

E|------7-10-9-7----------------7-10-9-7---------------7-10-9-7------------|
B|----8----------10-8---10----8----------10-8-7------8----------10-8---10--|
G|--9-----------------7-----7-------------------9--7-----------------7-----|
D|-------------------------------------------------------------------------|
A|-------------------------------------------------------------------------|
E|-------------------------------------------------------------------------|

E|--7--------------|--7-------------------------------------------------------------|
B|----10-8-10-8-7--|----10-8-10-8-7-10-8-7---------------12----10----8----7---------|
G|-----------------|-----------------------9---11/----7------------------------9----|
D|-----------------|----------------------------------------------------------------|
A|-----------------|----------------------------------------------------------------|
E|-----------------|----------------------------------------------------------------|
 < ---Repeat 1x---------------------------------------------------------------------| >

E|----------------------9----10----12------|
B|----------------12-----------------------|
G|--9---11/----7---------------------------|
D|--------------------------------------4--|
A|-----------------------------------------|
E|-----------------------------------------|

E|-----------------------------------------------------|
B|------------5---5-7-5-7-8-7-5---5--------------------|
G|--4-6-7-6-7---7---------------7---7-6-7-6-4-6--------|
D|----------------------------------------------4-4----|
A|-----------------------------------------------------|
E|-----------------------------------------------------|
 < ------------------Repeat 1x-------------------------| >
E|----------------------7-5---5------------------------|
B|------------5---5-7-5-----8---8-7-8-7-5-7------------|
G|--4-6-7-6-7---7--------------------------------------|
D|-----------------------------------------------------|
A|-----------------------------------------------------|
E|-----------------------------------------------------|

E|--7-5---5-------------------------------------|-----------------------------------------------------------|
B|------8---8-7-8-7-5-7-5--------5-7-8-7-5------|-----------------------------------------------------------|
G|------------------------7--6-7-----------7-6--|--4--------------------------------------------------------|
D|----------------------------------------------|-------7----4----------------------------------------------|
A|----------------------------------------------|-----------------7----5----4---2----0-------------------5--|
E|----------------------------------------------|-----------------------------------------3----2----0-------|

Quite long pause here...
Lets go again!

E|----------------------------------------------------------------------------------------------------|
B|--10-----10-----11-13-13--11-10--------------10-10-----10-10-11-13-13-11-10--------------10---------|
G|----10-----10-------------------12-10--10-12-------12/----------------------12--10-10-12-------10/--|
D|------10-----10--------------------------------------------------------------------------------10/--|
A|----------------------------------------------------------------------------------------------------|
E|----------------------------------------------------------------------------------------------------|

E|------------------------------|-----10-12-14-12-10--12-------|
B|--7-7-8-10-10-10-10-10-10-10--|--10--------------------------|
G|------------------------------|-------------------------14/--|
D|------------------------------|-------------------------14/--|
A|------------------------------|------------------------------|
E|------------------------------|------------------------------|

E|--------------------------------------------------------------------------------|
B|--7-7-8-10-10-8-7------------7-----------7--------7-8-7------7-8-7-8-10-12hold--|
G|------------------9--7--7-9-----9--7--9-----7--9--------7--9--------------------|
D|--------------------------------------------------------------------------------|
A|--------------------------------------------------------------------------------|
E|--------------------------------------------------------------------------------|

E|-------------------------------------|------------12---17--17-|-1712-1712-1712-1712-1712--|
B|--7-7-8-10-10-8-7-9---------7----10--|--10----11/-------------|---------------------------|
G|---------------------7--7-9----9-----|-----11-11/-------------|---------------------------|
D|-------------------------------------|------------------------|---------------------------|
A|-------------------------------------|------------------------|---------------------------|
E|-------------------------------------|------------------------|---------------------------|
                          < --------Repeat 1x-----------------------------------------------| >

E|--17-15hold--15-15/14-12-10------------12--|--11-10-9-8-7-----------------|
B|----------------------------14-12-10-------|---------------11-10-9-9-8-7--|
G|-------------------------------------------|------------------------------|
D|-------------------------------------------|------------------------------|
A|-------------------------------------------|------------------------------|
E|-------------------------------------------|------------------------------|

E|---------------------------------------------------|
B|--------------------------------------4-5-6-7-8-9--|
G|--------------------------2-3-4-5-6-7--------------|
D|--------------1-2-3-4-5-6--------------------------|
A|--0-1-2-3-4-5--------------------------------------|
E|---------------------------------------------------|

E|--------------------11-12-13-14-15-16-17-18-19-20-21-22-22-24-24-24-24-24—23/--|---------------|
B|--10-11-12-13-14-15------------------------------------------------------------|---------5--7--|
G|-------------------------------------------------------------------------------|---------6--7--|
D|-------------------------------------------------------------------------------|---------7--7--|
A|-------------------------------------------------------------------------------|---------7--9--|
E|-------------------------------------------------------------------------------|---------------|

That's it!
(I wanted to tab down "Eugene's trickbag", but there are already
so many versions of it, so I tabbed this down instead.)

If you got any corrections, please send me an email!





Comments


Popular Rainbow tabs & chords
Since You Ve Been Gone Bass Tabs
I Surrender Chords
Rainbow Eyes 1 Chords
Catch The Rainbow Tabs
Cold Hearted Woman Tabs
Do You Close Your Eyes Intro Tabs
Jealous Lover 1 Tabs
La Connection Intro 1 Tabs
Lady Of The Lake Tabs
Temple Of The King 1 Tabs


Song lyrics



↑ Back to top | Tablatures and chords are parodies/interpretations of the original songs. You may use it for private study, scholarship, research or language learning purposes only
© 2014 AZChords.com Contact us | Privacy policy | DMCA | Add/correct tabs | Request tabs | Top 50 tabs