>
 >
Ariel

Ariel Bass Tabs

Rainbow - Ariel chords, tabs, tablatures, lyrics

Guitar lessons | Add/correct | Request | Top 50 tabs Artists:  A B C D E F G H I J K L M N O P Q R S T U V W X Y Z 0-9

Ariel Bass Tabs – Rainbow

CD, Sheet music, Poster

Do you like Ariel? Share with your friends now
Bass TabsTabs
Ariel                                       
BASS
                                                                
G||------------------|------------------|----------------------|
D||------------------|------------------|----------------------|
A||------------------|------------------|----------------------|
E||------------------|------------------|---2-3--0-2-----------|
B||------------------|------------------|----------------------|


                                                                     
----------------------|----------------------|----------------------|
----------------------|----------------------|----------------------|
----------------------|----------------------|----------------------|
---2-3--0-2-----------|---2-3--0-2-----------|---2-3--0-2-----------|
----------------------|----------------------|----------------------|


                                                         
---------------------------|------------------------2---|
------------------1-2-4----|------------------1-2-4-----|
---2-3--0-2---2-3----------|---2-3--0-2---2-3-----------|
---------------------------|----------------------------|
---------------------------|----------------------------|


                                                               
---------------------------|----------------------------------|
------------------1-2-4----|------1-2-4-5-4-2-1-2-1-----------|
---2-3--0-2---2-3----------|--2-3-------------------3-2-3-0-2-|
---------------------------|----------------------------------|
---------------------------|----------------------------------|


                                                                        
---------------------|-----------------------|-------------------------|
---------------------|-------------------0-2-|-------------------------|
---------------------|-----------------------|-------------3----3--3-3-|
--0-------0-0--------|--0-------0-0----------|--0----0---0-------------|
---------------------|-----------------------|-------------------------|


                                                                           
------------------------|------------------------|------------------------|
------------------------|------------------------|--------------------0-2-|
----------0-2-3----2----|------------------------|------------------------|
--0----0----------------|--0----0--0--1----1--1--|--0-------0-0-----0-----|
------------------------|------------------------|------------------------|


                                                                            
-------------------------|------------------------|------------------------|
-------------------------|------------------------|------------------------|
-------------3----3--3-3-|----------0-2-3----2----|------------------------|
--0----0---0-------------|--0----0----------------|--0----0--0--1----1--1--|
-------------------------|------------------------|------------------------|


                                                                          
------------------------|---------------------|--------------------------|
--------------------0-2-|------------3--------|--------------------------|
------------------------|---------3-----------|---7-8-7-5-7--------------|
--0-------0-0-----0-----|--1------------------|---------------0-0---0----|
------------------------|---------------------|--------------------------|


                                                         
-------------------------7---|--------------------------|
-------------------6-7-9-----|--------------------------|
---7-8-7-5-7---7-8-----------|---7-8-7-5-7--------------|
-----------------------------|---------------0-0---0----|
-----------------------------|--------------------------|


                                                              
-----------------------------------|-------------------------|
------7-6-9-10-9-7-6-7-6-----------|-------------------------|
--7-8--------------------8-7-8-5-7-|-------------3----3--3-3-|
-----------------------------------|--0----0---0-------------|
-----------------------------------|-------------------------|


                                                                           
------------------------|------------------------|------------------------|
------------------------|------------------------|--------------------0-2-|
----------0-2-3----2----|------------------------|------------------------|
--0----0----------------|--0----0--0--1----1--1--|--0-------0-0-----0-----|
------------------------|------------------------|------------------------|


                                                                            
-------------------------|------------------------|------------------------|
-------------------------|------------------------|------------------------|
-------------3----3--3-3-|----------0-2-3----2----|------------------------|
--0----0---0-------------|--0----0----------------|--0----0--0--1----1--1--|
-------------------------|------------------------|------------------------|


                                                                    
---------------------|-----------------------|---------------------|
---------------------|-----------------------|---------------------|
---------------------|--0--------0--2--3-----|---------3/-8--------|
--0-------0-0--------|--------------------0--|--1------------------|
---------------------|-----------------------|---------------------|


                                                                               
-------------------------|------------------------7---|-----------------------|
-------------------------|------------------6-7-9-----|--------------------2--|
---7-8--5-7--------------|---7-8--5-7---7-8-----------|--0--------0--2--3-----|
--------------0-0---0----|----------------------------|-----------------------|
-------------------------|----------------------------|-----------------------|


                                                                        
-------------------------|-------------------------|-------------------|
--3----3----------3------|-------------------------|-------------------|
----------3----------0-2-|--3----3--3---3----------|-------------------|
-------------1-----------|------------3------0--1--|--3----------------|
-------------------------|-------------------------|-------------------|


                                                                     
-----------|---------------------------|------------------------2---|
-----------|------------------1-2-4----|------------------1-2-4-----|
-----------|---2-3--0-2---2-3----------|---2-3--0-2---2-3-----------|
--3--------|---------------------------|----------------------------|
-----------|---------------------------|----------------------------|


                                                               
---------------------------|----------------------------------|
------------------1-2-4----|------1-2-4-5-4-2-1-2-1-----------|
---2-3--0-2---2-3----------|--2-3-------------------3-2-3-0-2-|
---------------------------|----------------------------------|
---------------------------|----------------------------------|


                                                                           
------------------------|------------------------|------------------------|
------------------------|------------------------|------------------------|
-------------3----3--3--|----------0-2-3----2----|------------------------|
--0----0---0------------|--0----0----------------|--0----0--0--1----1--1--|
------------------------|------------------------|------------------------|


                                                                         
----------------------|------------------------|------------------------|
----------------0--2--|------------------------|------------------------|
----------------------|----------0-2-3----2----|------------------------|
--0--------0----------|--0----0----------------|--0----0--0--1----1--1--|
----------------------|------------------------|------------------------|


                                                                      
----------------------|----------------------|-----------------------|
----------------0--2--|------------2---------|-----------------------|
----------------------|----------------------|--0--------0--2--3-----|
--0--------0----------|--0------0---------3--|--------------------0--|
----------------------|----------------------|-----------------------|


                                                                             
---------------------|-------------------------|------------------------7---|
---------------------|-------------------------|------------------6-7-9-----|
---------3/-8--------|---7-8--5-7--------------|---7-8--5-7---7-8-----------|
--1------------------|--------------0-0---0----|----------------------------|
---------------------|-------------------------|----------------------------|


                                                                            
-----------------------|-------------------------|-------------------------|
--------------------2--|--3----3----------3------|-------------------------|
--0--------0--2--3-----|----------3----------0-2-|--3----3--3---3----------|
-----------------------|-------------1-----------|------------3------0--1--|
-----------------------|-------------------------|-------------------------|


                                                            
-------------------|-----------|---------------------------|
-------------------|-----------|------------------1-2-4----|
-------------------|-----------|---2-3--0-2---2-3----------|
--3----------------|--3--------|---------------------------|
-------------------|-----------|---------------------------|


                                                         
------------------------2---|---------------------------|
------------------1-2-4-----|------------------1-2-4----|
---2-3--0-2---2-3-----------|---2-3--0-2---2-3----------|
----------------------------|---------------------------|
----------------------------|---------------------------|


                                                         
------------------------2---|---------------------------|
------------------1-2-4-----|------------------1-2-4----|
---2-3--0-2---2-3-----------|---2-3--0-2---2-3----------|
----------------------------|---------------------------|
----------------------------|---------------------------|


                                                         
------------------------2---|---------------------------|
------------------1-2-4-----|------------------1-2-4----|
---2-3--0-2---2-3-----------|---2-3--0-2---2-3----------|
----------------------------|---------------------------|
----------------------------|---------------------------|


                                                           
----------------------------------|-----------------------|
------1-2-4-5-4-2-1-2-1-----------|-----------------------|
--2-3-------------------3-2-3-0-2-|--0--------0--2--3-----|
----------------------------------|--------------------0--|
----------------------------------|-----------------------|


                                                                             
---------------------|-------------------------|------------------------7---|
---------------------|-------------------------|------------------6-7-9-----|
---------3/-8--------|---7-8--5-7--------------|---7-8--5-7---7-8-----------|
--1------------------|--------------0-0---0----|----------------------------|
---------------------|-------------------------|----------------------------|


                                                                            
-----------------------|-------------------------|-------------------------|
--------------------2--|--3----3----------3------|-------------------------|
--0--------0--2--3-----|----------3----------0-2-|--3----3--3---3----------|
-----------------------|-------------1-----------|------------3------0--1--|
-----------------------|-------------------------|-------------------------|


                                                                   
-------------------|-----------|----------------0-------------0-2-|
-------------------|-----------|----------0-2-3---------0-2-3-----|
-------------------|-----------|----0-2-3---------0-2-3-----------|
--3----------------|--3--------|--3-------------------------------|
-------------------|-----------|----------------------------------|


                                                                            
---------------------------|---------------------------|-------------------|
-------------------3-------|---------------------------|-------------------|
---------------------0-1-2-|--3----3-----3--3--3-------|-------------------|
--1----1---1-1--1----------|-----------3---------0-1-2-|--3----------------|
---------------------------|---------------------------|-------------------|


                                                               
----------------0-------------0-2-|---------------------------|
----------0-2-3---------0-2-3-----|-------------------3-------|
----0-2-3---------0-2-3-----------|---------------------0-1-2-|
--3-------------------------------|--1----1---1-1--1----------|
----------------------------------|---------------------------|


                                                                   
---------------------------|-------------------|------------------|
---------------------------|-------------------|------------------|
--3----3-----3--3--3-------|-------------------|------------------|
-----------3---------0-1-2-|--3----------------|------------------|
---------------------------|-------------------|------------------|


                                                              
--------------------|-------------------|--------------------|
--------------------|-------------------|--------------------|
--------------------|-------------------|--------------------|
--3------------3----|-------------------|--3------------3----|
--------------------|--3----------------|--------------------|


                                                                    
-------------------|-----------------------|-----------------------|
-------------------|-----------------------|-----------------------|
-------------------|----------------3---5--|-----------------------|
-------------------|--3------3--6----------|-----------------------|
--3----------------|-----------------------|--3--------3-----3-6-3-|


                                                                          
-----------------------|----------------------||-------------------------|
-----------------------|----------------------||*------------------------|
-----------------------|---------------5------||-------------------------|
--3------3--6---5---3--|----------------------||*--3------3--3-------1-3-|
-----------------------|--3------3--3---------||-------------------3-----|


                                                                                
------------------------|------------------------|-----------------------||---||
------------------------|------------------------|----------------------*||---||
------------------------|---------------------3--|-----------------------||---||
--------------------1---|--3------3--3--6---3----|----------------------*||---||
--3------3--3-----3---3-|------------------------|--3------3--3----3-----||---||





Comments


Popular Rainbow tabs & chords
All Night Long Bass Tabs
Catch The Rainbow Bass Tabs
Street Of Dreams 1 Chords
Catch The Rainbow Tabs
I Surrender Tabs
Maybe Next Time 1 Tabs
Stone Cold Tabs
Cant Let You Go Ukulele
Catch The Rainbow Ukulele
Street Of Dreams Ukulele


Song lyrics



↑ Back to top | Tablatures and chords are parodies/interpretations of the original songs. You may use it for private study, scholarship, research or language learning purposes only
© 2014 AZChords.com Contact us | Privacy policy | DMCA | Add/correct tabs | Request tabs | Top 50 tabs