>
 >
Anybody There

Anybody There Guitar Tabs

Rainbow - Anybody There chords, tabs, tablatures, lyrics

Guitar lessons | Add/correct | Request | Top 50 tabs Artists:  A B C D E F G H I J K L M N O P Q R S T U V W X Y Z 0-9

Anybody There Guitar Tabs – Rainbow

CD, Sheet music, Poster

Do you like Anybody There? Share with your friends now
Tabs
One of Richie Blackmore's masterpieces

~vibrato
BU-Bend up
LD-Bend down
BD-bend up and down
PO-pull off
x-mute string
tr-triller for example if u have 9tr you play 9-10-9 fast so it sounds like it's one note
0~ is played on open string using the vibrato erm stick?

e|-----------------------------------------|
B|-----------------------------------------|
G|               BU     PO       BD
D|7-8-7--------7-7-6-7-6-7-6~-7-9-9-7------|
A|------9~-7-9------------------------9-7-9|

e|                BD      PO
B|-----BD--7-9-10-12-9-10-9-10-9-BD|
G|-7-9-9-6-----------------------11|
D|7--------------------------------|
A|---------------------------------|
E|---------------------------------|

e|BU-9-10-9-12PO10-9-----PO----------9po7-|
B|12----------------12-10-12-10~BU-7-----7|
G|------------------------------9---------|
D|----------------------------------------|
A|----------------------------------------|
E|----------------------------------------|

e|------------------------------------------|
B|-------9-9-9-10-9tr-9-11-13-11-13-14-13tr-|
G|7-6po7------------------------------------|
D|-------9~---------------------------------|
A|------------------------------------------|

e|----------------------------------|
B|11tr-9--9-----------------------9~|
G|------11-9--------6-7-9-7-6-7-6---|
D|----------11-9-11~----------------|
A|----------------------------------|
E|----------------------------------|

e|------7----------------------|
B|7~9-10-------------------5---|
G|--------6--------------4-----|
D|----------9-7-6----6---6-----|
A|----------------9~-7-9-----0~|
E|-----------------------------|

                          BU
e|-----12PO10-9------BD---16-16-14--------------------|
B|10-10--------10----12--x---------14-10-9PO-10---9-10|
G|---------------9------x----------------------11-----|
D|----------------11----------------------------------|
A|----------------------------------------------------|
E|----------------------------------------------------|

e|------------------------------------------------------|
B|9tr---BU-BU-BU LD---LD------------------7-9-10-9tr-7-7|
G|---11-9-9-9-9---9-11-9-7po-9-7-9-7-6po7-------------9-|
D|---------------------------------------9--------------|
A|------------------------------------------------------|
E|------------------------------------------------------|

e|-------------------------------BU-9-10-9tr--9----|
B|-------7-------BD-9-9-10-9tr-9-12---------12--10-|
G|7-9-7-9-9-7-9tr7---------------------------------|
D|-------------------------------------------------|
A|-------------------------------------------------|
E|-------------------------------------------------|

Fast part:
e|---------------------------9-10-12|14-12tr-10-14-12-10|------|
B|12po10-9--9---------9-10-12-------|-------------------|10-BU-|
G|--------11--11-9-11---------------|-------------------|---7--|
A|----------------------------------|-------------------|------|
E|----------------------------------|-------------------|------|

e|--------------------------------------BU-BU--BD-------14|
B|9-9-9-10-9tr-9-11-13-14-14-15-14tr-12--17-17-17---------|
G|-------------------------------------14---------14-14---|
D|--------------------------------------------------------|
A|--------------------------------------------------------|
E|--------------------------------------------------------|

        BU BD                   BU BU BD      BU BD
e|16-17-17-17-14-BU-14-16-17-19-19-19-19------19-19----|
B|---------------17----------------------17-17-----17-17|
G|------------------------------------------------------|
D|------------------------------------------------------|
A|------------------------------------------------------|
E|------------------------------------------------------|

  BU BD                      BD
e|19-19-17-19-----------9-10-10-9-----------------------|
B|-----------17s10-10-12---------10---------------------|
G|---------------------------------9-7-6----------------|
D|--------------------------------------7---------------|
A|----------------------------------------7-5-4---------|
E|----------------------------------------------5-------|





Comments


Popular Rainbow tabs & chords
Gates Of Babylon Bass Tabs
Maybe Next Time Bass Tabs
Sixteenth Sentury Greensleeves Bass Tabs
Catch The Rainbow 1 Chords
Street Of Dreams Chords
Death Alley Driver Tabs
Man On The Silver Mountain (Intro) Tabs
Man On The Silver Mountain 2 Tabs
Since Youve Been Gone (Intro) Tabs
Since Youve Been Gone Ukulele


Song lyrics



↑ Back to top | Tablatures and chords are parodies/interpretations of the original songs. You may use it for private study, scholarship, research or language learning purposes only
© 2014 AZChords.com Contact us | Privacy policy | DMCA | Add/correct tabs | Request tabs | Top 50 tabs