>
 >
All Night Long

All Night Long Bass Tabs

Rainbow - All Night Long chords, tabs, tablatures, lyrics

Guitar lessons | Add/correct | Request | Top 50 tabs Artists:  A B C D E F G H I J K L M N O P Q R S T U V W X Y Z 0-9

All Night Long Bass Tabs – Rainbow

CD, Sheet music, Poster

Do you like All Night Long? Share with your friends now
Bass TabsChordsTabsUkulele
Recorded and released in early 1980 reaching number 5 in UK charts
Graham Bonnet (The Marbles fame) on lead vocals with
Not exactly as original but near enough as it matters.
Great rocking song!

Intro:                   .   .                         .
G|-------------|---------------|-------------|----------------------|
D|-Lead Guitar-|---------------|-Lead Guitar-|----------------------|
A|---No Bass---|-3-1-0---------|---No bass---|-3-1-0----------------|
E|-------------|-------3-1---3-|-------------|-------3-1---33333333-|

G|----------------------------------------------------------------|
D|----------------------------------------------------------------|
A|----------------------------------------------------------------|
E|-33333012-33333333-33333012-33333333-33333012-33333333-33333345-|

Verse:
G|----------------------------------------------------------------------|
D|------8----------------3----------------------------------------------|
A|----------------------------------6-6-6-6-6-6-6-6---1-1-1-1-----------|
E|-6-6-6--6-6-6-6---1-1-1--1-1-1-1------------------------------1-1-1-1-|

G|------3------------------------------------------------------------|
D|---------------------3------------------0-1-1-1-1------------------|
A|-1-1-1--1-1-1-1-----------------3-3-3-3------------1-1-1-1-1-1-1-1-|
E|----------------1-1-1--1-1-1-1-------------------------------------|

Bridge 1:
G|------------------------------------------------------------------------|
D|------------------------------------------------------------------------|
A|-3---------------3-----5-6----------------------------------------------|
E|---------4-----------------11111111-11111111-11111111-11111111-33333333-|

G|----------------------------------------------------------------|
D|----------------------------------------------------------------|
A|----------------------------------------------------------------|
E|-33333012-33333333-33333012-33333333-33333012-33333333-33333345-|

Repeat Verse:

Bridge 2:
G|------------------------------------------------------------------------|
D|------------------------------------------------------------------------|
A|-3---------------3-----5-6----------------------------------------------|
E|---------4-----------------11111111-11111111-11111111-11111111-33333333-|

G|----------------------------------------------------------------|
D|----------------------------------------------------------------|
A|----------------------------------------------------------------|
E|-33333012-33333333-33333012-33333333-33333012-33333333-33333333-|

Bridge 3:
G|-------------------------------------------------------------------------|
D|--------------------6----------------------------------------------------|
A|-3------------3-----------3----------------------------------------------|
E|-------4-------------------------4---11111111-11111111-11111111-11111111-|

Repeat Verse & Bridge 1 to Fade/End.





Comments


Popular Rainbow tabs & chords
Man On The Silver Mountain Bass Tabs
Since You Ve Been Gone Bass Tabs
Since Youve Been Gone Bass Tabs
Since Youve Been Gone 1 Chords
Street Of Dreams 1 Chords
A Light In The Black Tabs
Do You Close Your Eyes Intro Tabs
Long Live Rock'n'Roll Tabs
Lost In Hollywood Intro Tabs
Man On The Silver Mountain Ukulele


Song lyrics



↑ Back to top | Tablatures and chords are parodies/interpretations of the original songs. You may use it for private study, scholarship, research or language learning purposes only
© 2014 AZChords.com Contact us | Privacy policy | DMCA | Add/correct tabs | Request tabs | Top 50 tabs