>
 >
Sanidade

Sanidade Guitar Tabs

Raimundos - Sanidade chords, tabs, tablatures, lyrics

Guitar lessons | Add/correct | Request | Top 50 tabs Artists:  A B C D E F G H I J K L M N O P Q R S T U V W X Y Z 0-9

Sanidade Guitar Tabs – Raimundos

CD, Sheet music, Poster

Do you like Sanidade? Share with your friends now
Tabs
Versão 1:

Intro
E|-------------------------------------------------------|
B|-------------------------------------------------------|
G|-------------5------------------5-5-5-5-5-5-5-5-5-7-4--|
D|--2-2--2-2-2-5-5-5-7-2-2--2-2-2-5-5-5-5-5-5-5-5-5-7-4--|
A|--2-2--2-2-2-3-5-5-5-2-2--2-2-2-3-3-3-3-3-3-3-3-3-5-2--|
E|--0-0--0-0-0---3-3-5-0-0--0-0-0------------------------|
                                 |     abafado     |


E|----------------------------------------------------------------------------------------------|
B|----------------------------------------------------------------------------------------------|
G|-------------5------------------5------------------5------------------5-----------------------|
D|--2-2--2-2-2-5-5-5-7-2-2--2-2-2-5-5-5-4-2-2--2-2-2-3-5-5-7-2-2--2-2-2-3-5-5-4-7-7-7-7-7-7-7-7-|
A|--2-2--2-2-2-3-5-5-5-2-2--2-2-2-3-5-5-4-2-2--2-2-2-3-5-5-5-2-2--2-2-2-3-5-5-4-7-7-7-7-7-7-7-7-|
E|--0-0--0-0-0---3-3-5-0-0--0-0-0---3-3-2-0-0--0-0-0---3-3-5-0-0--0-0-0---3-3-2-5-5-5-5-5-5-5-5-|
                                                                               |    abafado    |

C             B        A
Você pode até achar tudo normal

           C          B       A
Só que não é bem assim

C        B     A
O que parece bom pra você

         C     B       A
Pode não parecer pra mim


G                  A
Você fala em sanidade
 
     G            A
Como quem pode fazer

      G                A
Você tenta falar a verdade

            F              G
Só que não tem nada pra dizer


C      B     A
Suas idéias doentias

   C          B    A
Um dia te destruirão

C             B     A
Eu vou ver o seu império cair

     C              B        A
E sorrir sem ter nenhum perdão


G                   A
Achou que podia me humilhar

     G             A
Por trás de uma razão

       G               A
Uma razão que um dia acaba

           F                G
Quando o poder sai de suas mãos



Refrão:
A             C A   G  F 
Você não sabe o que dizer

A             C A   G  F
Você não sabe o que dizer

A             C A   G  F
Você não sabe o que dizer

                B
Só me resta esperar



Você pode até achar tudo normal...



Solo
A Base toca o refrão 2x


Refrão 2X


Final

E-|--------------------------------|
B-|--------------------------------|
G-|--------------------------------|
D-|-----2------------7-7-7-7-7-5-7-|
A-|-2-3---5-3-5-3-2--7-7-7-7-7-5-7-|
E-|------------------5-5-5-5-5-3-5-|





Comments


Popular Raimundos tabs & chords
Atitude Severa Bass Tabs
Mato Veio Bass Tabs
I Saw You Saying Chords
O Pao Da Minha Prima Chords
A Mais Pedida Tabs
Carro Forte Tabs
Selim Tabs
Selim 1 Tabs
Mulher De Fases Ukulele
O Pao Da Minha Prima Ukulele


Song lyrics



↑ Back to top | Tablatures and chords are parodies/interpretations of the original songs. You may use it for private study, scholarship, research or language learning purposes only
© 2014 AZChords.com Contact us | Privacy policy | DMCA | Add/correct tabs | Request tabs | Top 50 tabs