>
 >
Mato Veio

Mato Veio Bass Tabs

Raimundos - Mato Veio chords, tabs, tablatures, lyrics

Guitar lessons | Add/correct | Request | Top 50 tabs Artists:  A B C D E F G H I J K L M N O P Q R S T U V W X Y Z 0-9

Mato Veio Bass Tabs – Raimundos

CD, Sheet music, Poster

Do you like Mato Veio? Share with your friends now
Bass Tabs
Verso 1:
G |--------------------------------|
D |--------------------------------|
A |--------------------------------|
E |0-0-0-0-0-0-0---3-3-3-3-3-3-3---|

Verso 2: 
G |--------------------------------------------|-----------------------------------------|
D |--------------------------------------------|-----------------------------------------|
A |3-3-3-3-3-3-3-3-3-3----------------------2x-|3-3-3-3-3-3-3-3-3-3----------------------|
E |---------------------0-0-0-0-0-0-0-0-0-0----|----------------------3-3-3-3-3-3-3-3-3-3|

Verso 3a
G |---------------------------------------------------------------------------------------|
D |---------------------------------------------------------------------------------------|
A |---------------------2-3--3-3-3-3-3-3-3-3-3-3--5-5-5-5-5-5-5-5-5-5---------------------|
E |5-5-5-5-5-5-5-5-5-5-------------------------------------------------3-3-3-3-3-3-3-3-3-3|

Verso 3b:
G |---------------------------------------------------------------------------------------|
D |--------------------------------------------------------------------3-3-3-3-3-3-3-3-3-3|
A |---------------------2-3--3-3-3-3-3-3-3-3-3-3--5-5-5-5-5-5-5-5-5-5---------------------|
E |5-5-5-5-5-5-5-5-5-5--------------------------------------------------------------------|

Refrão:
G |-----------------------------------------------------------------------------------------------------------------------------|
D |------------------------------------------------3-3-3-3-3-3-3-3--------------------------------------------------------------|
A |--------------3-3-3-3-3-3-3-3--5-5-5-5-5-5-5-5---------------------------------3-3-3-3-3-3-3-3-------------------------------|
E |5-5-5-5-5--0-----------------------------------------------------5-5-5-5-5--0-------------------3-3-3-3-3-3-3-3-3-3-3-3-3-3-3|

Pré-solo:
G |--------------------------------------------------|
D |--------------------------------------------------|
A |--------------------------3-3-3-3-3-3-------------|
E |0-0-0-0-0-0--5-5-5-5-5-5---------------0-0-0-0-0-0|

Solo:
G |-----------------------------------------------------------------------------------|-----------------------------------------------------------------------------------|
D |-----------------------------------------------------------------------------------|----------------------------------------------------------------3-3-3-3-3-3-3-3-3-3|
A |---------------------3-3-3-3-3-3-3-3-3-3--5-5-5-5-5-5-5-5-5-5----------------------|----------------------3-3-3-3-3-3-3-3-3-3--5-5-5-5-5-5-5-5-5-5---------------------|
E |5-5-5-5-5-5-5-5-5-5--------------------------------------------3-3-3-3-3-3-3-3-3-3-|-5-5-5-5-5-5-5-5-5-5---------------------------------------------------------------|

Ordem:

Verso 1:
E quase mata o véi! Deu uma câimbra no coração 
Quando ela apareceu ao vivo, ao meio-dia, que rabão 
E quase mata o véi quando olhou ao seu redor 
Ficou de cara, sua mulher toda loirinha, desempenho bem melhor 

Verso 2:
Vendeu o furo pra televisão 
TV a rabo aqui só no botão 
Se ela não parar, o zé sem osso vai estourar 

Verso 3a:
Descer e o ponto que me faz subir 
Venham ver o show dessa menina 

Verso 3b:
Gostei, eu vou comprar um pra mim 
De bunda grande, inteligente e que tenha o vermelho 

Refrão:
Na veia, que durma tarde, acorde tarde 
É muito mais do que eu pedi 
É muita areia, é verdade que ela morde 
É muito mais do que eu pedi 

Verso 1:
Naquela noite, então, foi que o véio teve a visão 
Escravizar umas danada e formar uma curriola 
Se rasgando até o chão 
Me dá um tanto aí e tu aparece uma vez 
Agora me dá logo a grana toda e eu prometo só vai dar vocês

Pré-solo 1x
Solo 1x
Refrão





Comments


Popular Raimundos tabs & chords
Atitude Severa Bass Tabs
El Mariachi Bass Tabs
Eu Quero É Ver O Oco Bass Tabs
Baile Funky Tabs
Deixei De Fumar Tabs
I Saw You Say Tabs
Minha Cunhada Tabs
Nega Jurema 1 Tabs
Tora Tora 1 Tabs
O Pao Da Minha Prima Ukulele


Song lyrics



↑ Back to top | Tablatures and chords are parodies/interpretations of the original songs. You may use it for private study, scholarship, research or language learning purposes only
© 2014 AZChords.com Contact us | Privacy policy | DMCA | Add/correct tabs | Request tabs | Top 50 tabs