» » »

El Mariachi Bass tabs (ver.1)

Artists:  A B C D E F G H I J K L M N O P Q R S T U V W X Y Z # 

El Mariachi Bass tabs (ver.1)

Raimundos
Rating:
0/5 (0 votes)

Hard to play? Try these video lessons and learn fast.
                EL MARIACHI by RAIMUNDOS. Álbum: Kavookavala
Outra boa música Punk desse CD
bom os vocais do Digão nessa música.
é um pouco rápida, portanto escute antes...

intro: violão

versos:
G-|----------------------------------------------------------------------|
D-|----------------------------------------------------------------------|
A-|-8-8-----8-8-----3-3-3-3-3-3-3-3--5-5-5-5-5-5-5-5-------------------|
E-|-----5-5-----5-5-------------------------------------6-6-6-6-6-6-6-6-|

refrão:
G-|---------|------------------------------------------------------------------------>
D-|---------|------------------------------------------------------------------------>
A-|-guitarra-|------------------0-0-0-0-0-0-0-0--3-3-3-3-3-3-3-3--5-5-5-5-5-5-5-5->
E-|---------|-6-6-6-6-6-6-6-6------------------------------------------------------->

G-|-----------------------------------------------------|
D-|-----------------------------------------------------|
A-|------------------0-0-0-0-0-0-0-0--3-3-3-3-3-3-3-3-|
E-|-6-6-6-6-6-6-6-6------------------------------------|

solo: versos


"Hoje eu vi você sorrir pra mim..."
"Agora vem Mas vó, let's go..."
            
Hard to play? Try these video lessons and learn fast. | Correct




comments powered by Disqus
↑ Back to top | Tablatures and chords are parodies/interpretations of the original songs. You may use it for private study, scholarship, research or language learning purposes only