>
 >
A Mais Pedida

A Mais Pedida Guitar Tabs

Raimundos - A Mais Pedida chords, tabs, tablatures, lyrics

Guitar lessons | Add/correct | Request | Top 50 tabs Artists:  A B C D E F G H I J K L M N O P Q R S T U V W X Y Z 0-9

A Mais Pedida Guitar Tabs – Raimundos

CD, Sheet music, Poster

Do you like A Mais Pedida? Share with your friends now
Bass TabsBass Tabs v2Tabs
        G       Am     C      G        Am    C       G        Am           D
e||-----3--3-5-3--------------3-3-5-3----------------3--3-5-3------------------|
B||-3-5---------5-5--5-3---3h5---------5-5-5-3---3h5----------5-5-5-3--3h5-3~~-|
G||---------------------5----------------------5---------------------5---------|
D||----------------------------------------------------------------------------|
A||----------------------------------------------------------------------------|
E||----------------------------------------------------------------------------|

e|-----------|
B|-3h5-3h5---|
G|-----------|
D|-----------|
A|-----------|
E|-----------|

Power Chords with distortion:
    C G*    Am*     C G*    Am*     C G*    Am*       D
e|--3-3-5-3---------3-3-5-3---------3-3-5-3-----------------2-2-------------|
B|----------5-5-3-5---------5-5-3-5---------5-5-5-3-5-3~~---3-3-------------|
G|----------------------------------------------------------2-2-------------|
D|----------------------------------------------------------0-0-------------|
A|--------------------------------------------------------------------------|
E|--------------------------------------------------------------------------|

C
Nesse show não entra menor,

Um homem censurou, tava de mau humor
F*                Dm                  Am   G
Não tinha dormido bem porque não levantou
C
Pense como ia ser bom

Se nós fizesse um som que ultrapassasse
F*                                Am
A barreira das AM, FM e dos elevador
    G            C
Aí sim, dá um selinho
                          Dm
E mostra o seio that you saw
             F*                   Am
Quando eu te vi o meu calção se abriu
          Dm                    G
Caiu uma lágrima de um olho, que se for dos dois então
é namoro

Play This (Dm)
e|---------------------------|
B|---------------------------|
G|-9h10p9--9--7~---7/9--9/7~-|
D|---------------------------|
A|---------------------------|
E|---------------------------|

Chorus:
C                  F
Meu cabelo é ruim, mas meu terno é de linho
C                       F                 Dm
Vou ser seu salgadinho, cê vai gostar de mim
        G             C
Se eu tocar no seu radinho
             F                     C
Choro até o fim, só pra rimar com inho
                     F                        Dm
Pois se eu ganhar "din din" cê vai gostar de mim
        G              C
Se eu tocar no seu radinho

Chorus (Rodolfo):
e|-3-3-3-3-3-3-3-3-3-3-3-3-3-3-3-3-------------------------------------------|
B|---------------------------------------------------------------------------|
G|----------------------------------7----------------------------------------|
D|----------------------------------7---------------5------------------------|
A|----------------------------------5---------------5------------------------|
E|--------------------------------------------------3------------------------|

After Chorus:
    C G     Am      C G     Am      C G     Am        D
e|--3-3-5-3---------3-3-5-3---------3-3-5-3-----------------2-2-------------|
B|----------5-5-3-5---------5-5-3-5---------5-5-5-3-5-3~~---3-3-------------|
G|----------------------------------------------------------2-2-------------|
D|----------------------------------------------------------0-0-------------|
A|--------------------------------------------------------------------------|
E|--------------------------------------------------------------------------|


C
Por favor, seu locutor,

Ao menos uma vez, melhor se fossem três
F*                                        (Am  G  C) x2
Toca o nosso som aí que tu me faz feliz
D                                 (Am  G  C) x2
Se não tocar eu quebro o seu nariz


   C            Dm           F*       Am        Dm                  G
e|---------------------------------------------------------------------------|
B|---------------------------------------------------------------------------|
G|-----------------------------------------5---------------------------------|
D|----------------------------5h7-7-7--7h5---5h7---------------------------5-|
A|-3---3-5-7-5-3----5-7-8-7-5---------7----------7--8-7-8-7-8-7-8-7/5~-7h5---|
E|---3------------5---------------------------------------------------8------|
   C              Dm           F*                Am
e|--------------------------------------------------9--------|
B|---------5-------------------10-10-10-10-8---8h10---10--8--|
G|-5---5-7--7-5----7-9-10-9-7---------------9--------------9-|
D|---5------------7------------------------------------------|
A|-----------------------------------------------------------|
E|-----------------------------------------------------------|

  Dm                      G
e|----------------------------------------------15--------15---------------|
B|------------------------10p8~--13p12~--15b(16)---15b(16)---15b(16)15--13-|
G|-10-9-10-9-10-9-10-9/7~--------------------------------------------------|
D|-------------------------------------------------------------------------|
A|-------------------------------------------------------------------------|
E|-------------------------------------------------------------------------|

[Repeat Chorus]

C              F
Chame, chame...se der a chame ela...
C              F
Chame, chame...se der a chame ela...

     Dm         G             C
Só assim preu tocar no seu radinho

    C G*    Am*     C G*    Am*     C G*    Am*       D
e|--3-3-5-3---------3-3-5-3---------3-3-5-3-----------2---------------------|
B|----------5-5-3-5---------5-5-3-5---------5-5-5-3-5-3---------------------|
G|----------------------------------------------------2---------------------|
D|----------------------------------------------------0---------------------|
A|--------------------------------------------------------------------------|
E|--------------------------------------------------------------------------|





Comments


Popular Raimundos tabs & chords
Atitude Severa Bass Tabs
Eu Quero É Ver O Oco Bass Tabs
A Sua Tabs
Andar Na Pedra Tabs
Bestinha Tabs
Carro Forte Tabs
Dexei De Fumar/Cana Caiana Tabs
Mato O VéIo Tabs
Nega Jurema 2 Tabs
Pequena Raimunda Tabs


Song lyrics



↑ Back to top | Tablatures and chords are parodies/interpretations of the original songs. You may use it for private study, scholarship, research or language learning purposes only
© 2014 AZChords.com Contact us | Privacy policy | DMCA | Add/correct tabs | Request tabs | Top 50 tabs