» » »

You'll Never Learn Tabs (ver.1)

Artists:  A B C D E F G H I J K L M N O P Q R S T U V W X Y Z # 

You'll Never Learn Tabs (ver.1)

Raging Under The Influence
Rating:
0/5 (0 votes)

Hard to play? Try these video lessons and learn fast.
                Tuning D-A-D-G-B-E = Drop D
 
 Intro A (Distortion/Reverb)
E|---------------|
B|---------------|
G|---------------|8x
D|---------------|
A|---------------|
D|-2-0p2-2/3/2-0-|

  Intro B (Distortion/Reverb)
E|-------------------|
B|-------------------|
G|-------------------|4x
D|-------------------|
A|-------------------|
D|-2-0p2/14-3-0p3/15-|

  Intro C (Distortion/Reverb)
E|---------------|
B|---------------|
G|---------------|8x
D|-2-0p2-0p2-2-2-|
A|-2-0p2-0p2-2-2-|
D|-2-0p2-0p2-2-2-|

  Verse (Distortion/Reverb)
E|------------------------------------------|
B|------------------------------------------|
G|------------------------------------------|3x
D|-2-2-x-2-2---------3-3-x-3-3--------------|
A|-2-2-x-2-2--5-5-5--3-3-x-3-3--8-8-8-8-8-8-|
D|-2-2-x-2-2--5-5-5--3-3-x-3-3--8-8-8-8-8-8-|

E|------------------------------------------------|
B|------------------------------------------------|
G|------------------------------------------------|
D|-2-2-x-2-2---------3-3-x-3-3--------------10-10-|
A|-2-2-x-2-2--5-5-5--3-3-x-3-3--10-10-10-10-10-10-|
D|-2-2-x-2-2--5-5-5--3-3-x-3-3--10-10-10-10-10-10-|  repeat verse 4x

  Pre-Chorus (Distortion/Reverb)
E|------------------------------------------------------------------|
B|------------------------------------------------------------------|
G|------------------------------------------------------------------|3x
D|-10-10-10-10-xx-12-12-12-12-xx-7-7-7-7-xx-14-14-14-14-14-14-14-14-|
A|-10-10-10-10-xx-12-12-12-12-xx-7-7-7-7-xx-14-14-14-14-14-14-14-14-|
D|-10-10-10-10-xx-12-12-12-12-xx-7-7-7-7-xx-14-14-14-14-14-14-14-14-|

E|------------------------------------------------------------------|
B|------------------------------------------------------------------|
G|------------------------------------------------------------------|
D|-10-10-10-10-xx-12-12-12-12-xx-7-7-7-7-xx-10-10-10-10-10-10-10-10-|
A|-10-10-10-10-xx-12-12-12-12-xx-7-7-7-7-xx-10-10-10-10-10-10-10-10-|
D|-10-10-10-10-xx-12-12-12-12-xx-7-7-7-7-xx-10-10-10-10-10-10-10-10-| repeat it all 2x

  Chorus (Distortion/Reverb)
E|----------------------------------------------------------------------------------|
B|-5-5-5-5--8-8-8-8--6-6-6-6-6-6-6-6---5-5-5-5--8-8-8-8--11-11-11-11-11-11-11-11-11-|
G|-4-4-4-4--7-7-7-7--5-5-5-5-5-5-5-5---4-4-4-4--7-7-7-7--10-10-10-10-10-10-10-10-10-|4x
D|-2-2-2-2--5-5-5-5--3-3-3-3-3-3-3-3---2-2-2-2--5-5-5-5--8--8--8--8--8--8--8--8--8--|
A|-2-2-2-2--5-5-5-5--3-3-3-3-3-3-3-3---2-2-2-2--5-5-5-5--8--8--8--8--8--8--8--8--8--|
D|-2-2-2-2--5-5-5-5--3-3-3-3-3-3-3-3---2-2-2-2--5-5-5-5--8--8--8--8--8--8--8--8--8--|




  Bridge into Verse 2 (Distortion/Reverb)
E|-------------------------------------------------------------------|
B|-------------------------------------------------------------------|
G|-------------------------------------------------------------------|
D|-5-5-5-5-5-5-5-5--7-7-7-7-7-7-7-7--9-9-9-9-9-9-9-9-9-9-9-9-9-9-9-9-|
A|-x-x-x-x-x-x-x-x--x-x-x-x-x-x-x-x--x-x-x-x-x-x-x-x-x-x-x-x-x-x-x-x-|
D|-3-3-3-3-3-3-3-3--5-5-5-5-5-5-5-5--7-7-7-7-7-7-7-7-7-7-7-7-7-7-7-7-|

  Verse (Distortion/Reverb)
E|------------------------------------------|
B|------------------------------------------|
G|------------------------------------------|3x
D|-2-2-x-2-2---------3-3-x-3-3--------------|
A|-2-2-x-2-2--5-5-5--3-3-x-3-3--8-8-8-8-8-8-|
D|-2-2-x-2-2--5-5-5--3-3-x-3-3--8-8-8-8-8-8-|

E|------------------------------------------------|
B|------------------------------------------------|
G|------------------------------------------------|
D|-2-2-x-2-2---------3-3-x-3-3--------------10-10-|
A|-2-2-x-2-2--5-5-5--3-3-x-3-3--10-10-10-10-10-10-|
D|-2-2-x-2-2--5-5-5--3-3-x-3-3--10-10-10-10-10-10-|  repeat verse 4x

  Pre-Chorus (Distortion/Reverb)
E|------------------------------------------------------------------|
B|------------------------------------------------------------------|
G|------------------------------------------------------------------|3x
D|-10-10-10-10-xx-12-12-12-12-xx-7-7-7-7-xx-14-14-14-14-14-14-14-14-|
A|-10-10-10-10-xx-12-12-12-12-xx-7-7-7-7-xx-14-14-14-14-14-14-14-14-|
D|-10-10-10-10-xx-12-12-12-12-xx-7-7-7-7-xx-14-14-14-14-14-14-14-14-|

E|------------------------------------------------------------------|
B|------------------------------------------------------------------|
G|------------------------------------------------------------------|
D|-10-10-10-10-xx-12-12-12-12-xx-7-7-7-7-xx-10-10-10-10-10-10-10-10-|
A|-10-10-10-10-xx-12-12-12-12-xx-7-7-7-7-xx-10-10-10-10-10-10-10-10-|
D|-10-10-10-10-xx-12-12-12-12-xx-7-7-7-7-xx-10-10-10-10-10-10-10-10-| repeat it all 2x

  Chorus (Distortion/Reverb)
E|----------------------------------------------------------------------------------|
B|-5-5-5-5--8-8-8-8--6-6-6-6-6-6-6-6---5-5-5-5--8-8-8-8--11-11-11-11-11-11-11-11-11-|
G|-4-4-4-4--7-7-7-7--5-5-5-5-5-5-5-5---4-4-4-4--7-7-7-7--10-10-10-10-10-10-10-10-10-|4x
D|-2-2-2-2--5-5-5-5--3-3-3-3-3-3-3-3---2-2-2-2--5-5-5-5--8--8--8--8--8--8--8--8--8--|
A|-2-2-2-2--5-5-5-5--3-3-3-3-3-3-3-3---2-2-2-2--5-5-5-5--8--8--8--8--8--8--8--8--8--|
D|-2-2-2-2--5-5-5-5--3-3-3-3-3-3-3-3---2-2-2-2--5-5-5-5--8--8--8--8--8--8--8--8--8--|

  Bridge Into Solo (Distortion/Reverb)
E|-------------|	  E|-------------|
B|-11----------|	  B|-11----------|	
G|----10---10--|4x	  G|----10---10--|4x
D|-------------|	  D|-------------|
A|-------8-----|	  A|-------6-----|
D|-------------|	  D|-------------|

  Solo (Distortion/Reverb)
E|-------|	E|-------|	E|------|		E|-----|
B|-12/13-|	B|-10/12-|	B|-8/10-|		B|-7/8-|
G|-------|4x	G|-------|4x	G|------|4x	G|-----|4x
D|-------|	D|-------|	D|------|		D|-----|
A|-------|	A|-------|	A|------|		A|-----|
D|-------|	D|-------|	D|------|		D|-----|

E|----------------------------------------------------------------------------------|
B|-7-7/8--8-8--8/10--10-10--10/12--12-12--12/13b--12-13-12-10b-8-10-8-7-8-8b-7b-5bh-|
G|----------------------------------------------------------------------------------|
D|----------------------------------------------------------------------------------|
A|----------------------------------------------------------------------------------|
D|----------------------------------------------------------------------------------|



  Outro (Distortion/Reverb)
E|-------------|
B|-8--7--5-5-5-|
G|-7--6--4-4-4-|
D|-5--4--2-2-2-|
A|-5--4--2-2-2-|
D|-5--4--2-2-2-|
            
Hard to play? Try these video lessons and learn fast. | Correct




comments powered by Disqus
↑ Back to top | Tablatures and chords are parodies/interpretations of the original songs. You may use it for private study, scholarship, research or language learning purposes only