» » »

Raging Under The Influence, The Greatest Depression Tabs (ver.1)

Artists:  A B C D E F G H I J K L M N O P Q R S T U V W X Y Z # 

The Greatest Depression Tabs (ver.1)

Raging Under The Influence Tabs
 Rating:
4/5 (4 votes)
The Greatest Depression lessons Tabs too difficult? Try these video lessons and learn fast
                Tuning D-A-D-G-B-E = Drop D (use 15% Reverb throughout whole song)
 
  Intro (Clean)
E|--------------------------------------------------------|	
B|--------------------------------------------------------|	
G|--------------------------------------------------------|
D|---7------7------7------7------7------7------7------7---|	
A|-7---7--7---7--7---7--7------7---7--7---7--7---7--7-----|	
D|--------------------------7---------------------------7-|

E|--------------------------------------------------------|	
B|--------------------------------------------------------|	
G|--------------------------------------------------------|
D|---0------0------0------0------0------0------0------0---|	
A|-0---0--0---0--0---0--0------0---0--0---0--0---0--0-----|	
D|--------------------------0---------------------------0-|

E|--------------------------------------------------------|	
B|--------------------------------------------------------|	
G|--------------------------------------------------------|
D|---3------3------3------3------3------3------3------3---|	
A|-3---3--3---3--3---3--3------3---3--3---3--3---3--3-----|	
D|--------------------------3---------------------------3-|

  Verse (Clean)
E|----------------------------------------------------------------------------|	
B|----------------------------------------------------------------------------|	
G|----------------------------------------------------------------------------|x4
D|-7-7-7-7-7-7-7-7-7-7-7-7-7-7-7-7--3-3-3-3-3-3-3-3--5-5-5-5-5-5-5-5--0-0-0-0-|	
A|-7-7-7-7-7-7-7-7-7-7-7-7-7-7-7-7--0-0-0-0-0-0-0-0--0-0-0-0-0-0-0-0--5-5-5-5-|	
D|-7-7-7-7-7-7-7-7-7-7-7-7-7-7-7-7--0-0-0-0-0-0-0-0--0-0-0-0-0-0-0-0--0-0-0-0-|

  Chorus (Distortion)
E|-------------------------------------------------------------------|	
B|-7-7-7-7-7-7-7-7-7-7-7-7-7-7-7-7--6-6-6-6-6-6-6-6--8-8-8-8-8-8-8-8-|	
G|-7-7-7-7-7-7-7-7-7-7-7-7-7-7-7-7--5-5-5-5-5-5-5-5--7-7-7-7-7-7-7-7-|x4
D|-7-7-7-7-7-7-7-7-7-7-7-7-7-7-7-7--3-3-3-3-3-3-3-3--5-5-5-5-5-5-5-5-|	
A|-7-7-7-7-7-7-7-7-7-7-7-7-7-7-7-7--3-3-3-3-3-3-3-3--5-5-5-5-5-5-5-5-|	
D|-7-7-7-7-7-7-7-7-7-7-7-7-7-7-7-7--3-3-3-3-3-3-3-3--5-5-5-5-5-5-5-5-|

  Bridge (Distortion)
E|---------|	
B|-7-7-7-7-|	
G|-7-7-7-7-|x4
D|-7-7-7-7-|	
A|-7-7-7-7-|	
D|-7-7-7-7-|

  Verse (Clean)
E|----------------------------------------------------------------------------|	
B|----------------------------------------------------------------------------|	
G|----------------------------------------------------------------------------|x4
D|-7-7-7-7-7-7-7-7-7-7-7-7-7-7-7-7--3-3-3-3-3-3-3-3--5-5-5-5-5-5-5-5--0-0-0-0-|	
A|-7-7-7-7-7-7-7-7-7-7-7-7-7-7-7-7--0-0-0-0-0-0-0-0--0-0-0-0-0-0-0-0--5-5-5-5-|	
D|-7-7-7-7-7-7-7-7-7-7-7-7-7-7-7-7--0-0-0-0-0-0-0-0--0-0-0-0-0-0-0-0--0-0-0-0-|

  Chorus (Distortion)
E|-------------------------------------------------------------------|	
B|-7-7-7-7-7-7-7-7-7-7-7-7-7-7-7-7--6-6-6-6-6-6-6-6--8-8-8-8-8-8-8-8-|	
G|-7-7-7-7-7-7-7-7-7-7-7-7-7-7-7-7--5-5-5-5-5-5-5-5--7-7-7-7-7-7-7-7-|x4
D|-7-7-7-7-7-7-7-7-7-7-7-7-7-7-7-7--3-3-3-3-3-3-3-3--5-5-5-5-5-5-5-5-|	
A|-7-7-7-7-7-7-7-7-7-7-7-7-7-7-7-7--3-3-3-3-3-3-3-3--5-5-5-5-5-5-5-5-|	
D|-7-7-7-7-7-7-7-7-7-7-7-7-7-7-7-7--3-3-3-3-3-3-3-3--5-5-5-5-5-5-5-5-|




  Bridge (Distortion)
E|---------|	
B|-7-7-7-7-|	
G|-7-7-7-7-|x4
D|-7-7-7-7-|	
A|-7-7-7-7-|	
D|-7-7-7-7-|

  Solo (Distortion)
E|------------------------------------------------------------|	
B|----------------------------9-----------------------------9-|	
G|-7/9-9--7/9-9--7/9-9--7/9-9----7/9-9--7/9-9--7/9-9--7/9-9---|
D|------------------------------------------------------------|	
A|------------------------------------------------------------|	
D|------------------------------------------------------------|

E|------------------------------------------------------------------------------|	
B|------------------------------------10-------------------------------------10-|	
G|-9/10-10--9/10-10--9/10-10--9/10-10-----9/10-10--9/10-10--9/10-10--9/10-10----| play
D|------------------------------------------------------------------------------| solo 2x
A|------------------------------------------------------------------------------|	
D|------------------------------------------------------------------------------|

  Outro
E|--------------------|	E|-----------------------------|
B|--------------------|	B|-----------------------------|
G|-0------------------|3x 	G|---------------------------0-|
D|-0------------------|	D|-7-7-7-7x/3-3-3-3x/5-5-5-5-0-|
A|-0------------------|	A|-7-7-7-7x/3-3-3-3x/5-5-5-5-0-|
D|-0--7-7-3-3-5-5-0-0-|	D|-7-7-7-7x/3-3-3-3x/5-5-5-5-0-|
            
Submit corrections

comments powered by Disqus
↑ Back to top | Raging Under The Influence Tabs for The Greatest Depression. Lyrics for acoustic guitar and electric guitar. Tablatures and chords are parodies/interpretations of the original songs. You may use it for private study, scholarship, research or language learning purposes only