» » »

Raging Under The Influence, The End Of The Road Tabs (ver.1)

Artists:  A B C D E F G H I J K L M N O P Q R S T U V W X Y Z # 

The End Of The Road Tabs (ver.1)

Raging Under The Influence Tabs
 Rating:
4/5 (4 votes)
The End Of The Road lessons Tabs too difficult? Try these video lessons and learn fast
                Tuning D-A-D-G-B-E = Drop D
 
  Intro A (Clean)
E|----------------------------------------------------------------------------|
B|-10-10-10-10-10-10-10-10--9-9-9-9-9-9-9-9--7-7-7-7-7-7-7-7--5-5-5-5-5-5-5-5-|
G|-9--9--9--9--9--9--9--9---9-9-9-9-9-9-9-9--7-7-7-7-7-7-7-7--4-4-4-4-4-4-4-4-|4x
D|----------------------------------------------------------------------------|
A|----------------------------------------------------------------------------|
D|----------------------------------------------------------------------------|

  Intro B (Clean)
E|-------------------------------------------------|
B|-10-10-10-10-10-10-10-10------9-9-9-9-9-9-9-9----|
G|-9--9--9--9--9--9--9--9--x2---9-9-9-9-9-9-9-9-x2-|4x
D|-------------------------------------------------|
A|-------------------------------------------------|
D|-------------------------------------------------|

  Intro C (Clean)
E|---------------------------------|
B|---------------------------------|
G|------------10/12-12-12-12-12-12-|
D|-0-10p12-12----------------------|
A|---------------------------------|
D|---------------------------------|

  Riff (Distortion)
E|-----------------------------------|	  E|-------------------------------|
B|-----------------------------------|    B|-------------------------------|
G|-----------------------------------|3x  G|-------------------------------|
D|---12-------0--------0--------0----|    D|---10-------0-------0------0---|
A|-0----0--13---13--12---12--12---12-|    A|-0----0--10---10--9---9--5---5-|
D|-----------------------------------|    D|-------------------------------|

  Interlude (Distortion)
E|------------------------------------------|
B|------------------------------------------|
G|-11---11----12----12-----9---9----9---9---|2x
D|----9----9-----10----10----7---7----7---7-|
A|------------------------------------------|
D|------------------------------------------|

E|------------------------------------------|
B|------------------------------------------|
G|-12----12-----11---11----9---9----9---9---|2x
D|----10----10-----9----9----7---7----7---7-|
A|------------------------------------------|
D|------------------------------------------|

  Verse (Distortion)
E|------------------------------------------------------------------------|
B|------------------------------------------------------------------------|
G|-7-7-7-7-7-7-7-7--5-5-5-5-5-5-5-5/9-9-9-9-9-9-9-9--10-10-10-10--9-9-9-9-|16x
D|-7-7-7-7-7-7-7-7--5-5-5-5-5-5-5-5/9-9-9-9-9-9-9-9--10-10-10-10--9-9-9-9-|
A|-5-5-5-5-5-5-5-5--3-3-3-3-3-3-3-3/7-7-7-7-7-7-7-7--8--8--8--8---7-7-7-7-|
D|-5-5-5-5-5-5-5-5--3-3-3-3-3-3-3-3/7-7-7-7-7-7-7-7--8--8--8—-8---7-7-7-7-|

  Bridge Into Chorus (Distortion)
E|----------------------------------------|
B|----------------------------------------|
G|---11---11----12---12----9---9----9---9-|4x
D|-0----0-----0----0-----0---0----0---0---|
A|----------------------------------------|
D|----------------------------------------|



  Chorus (Distortion)
E|------------------------------------------------------------------------|
B|------------------------------------------------------------------------|
G|------------------------------------------------------------------------|8x
D|-7-7-7-7-7-7-7-7--5-5-5-5-5-5-5-5/9-9-9-9-9-9-9-9--10-10-10-10--9-9-9-9-|
A|-x-x-x-x-x-x-x-x--x-x-x-x-x-x-x-x/x-x-x-x-x-x-x-x--x--x--x--x---x-x-x-x-|
D|-5-5-5-5-5-5-5-5--3-3-3-3-3-3-3-3/7-7-7-7-7-7-7-7--8--8--8—-8---7-7-7-7-|

Verse
Bridge Into Chorus
Chorus

Verse
Bridge Into Chorus
Chorus

  Bridge Into Solo (Distortion)
E|------------------------------------------------------------|
B|------------------------------------------------------------|
G|------------------------------------------------------------|3x
D|-0-0-0-0--10--0-0-0-0--8--0-0-0-0--7--0-0-0-0--3-3-3-3--5-5-|
A|-0-0-0-0--10--0-0-0-0--8--0-0-0-0--7--0-0-0-0--3-3-3-3--5-5-|
D|-0-0-0-0--10--0-0-0-0--8--0-0-0-0--7--0-0-0-0--3-3-3-3--5-5-|

E|------------------------------------------------------|
B|------------------------------------------------------|
G|------------------------------------------------------|
D|-0-0-0-0--10--0-0-0-0--8--0-0-0-0--7--0-0-0-0--3-3--8-|
A|-0-0-0-0--10--0-0-0-0--8--0-0-0-0--7--0-0-0-0--3-3--6-|
D|-0-0-0-0--10--0-0-0-0--8--0-0-0-0--7--0-0-0-0--3-3--6-|

  Solo (Distortion)
E|-----------------------------------------------------------------------------|
B|-----------------------------------------------------------------------------|
G|--------------9-12-10b--9b-7/9-------------10/9/10-7-5-7-------------3-3/5---|
D|-10-10p12-12/------------------10--9b--12b---------------8/7/5-5-5-3-------5-|
A|-----------------------------------------------------------------------------|
D|-----------------------------------------------------------------------------|

Chorus

  Bridge Into Outro
E|---------|
B|---------|
G|---------|4x
D|-0-0-0-0-|
A|-0-0-0-0-|
D|-0-0-0-0-|

  Outro
E|------------------------------------|
B|------------------------------------|
G|------------------------------------|8x
D|-/12------/10------/8------/12----/-|
A|-/13------/10------/8------/12----/-|
D|-/13-x16--/10-x16--/8-x12--/12-x8-/-|
            
Submit corrections

comments powered by Disqus
↑ Back to top | Raging Under The Influence Tabs for The End Of The Road. Lyrics for acoustic guitar and electric guitar. Tablatures and chords are parodies/interpretations of the original songs. You may use it for private study, scholarship, research or language learning purposes only