» » »

Raging Under The Influence, Night Of The Black Moon Tabs (ver.1)

Artists:  A B C D E F G H I J K L M N O P Q R S T U V W X Y Z # 

Night Of The Black Moon Tabs (ver.1)

Raging Under The Influence Tabs
Rating:
0/5 (0 votes)
Night Of The Black Moon lessons Tabs too difficult? Try these video lessons and learn fast
                Tuning D-A-D-G-B-E = Drop D
 
 Intro (Distortion)
E|--------------------------------------------------------------|
B|--------------------------------------------------------------|
G|--------------------------------------------------------------|2x
D|--------------------------------------------------------------|
A|-----8---8-----------10----10----------7---7---------8---8----|
D|-0-0---0---0---10-10----10----10---7-7---7---7---8-8---8---8--|
 
 
  Verse (Distortion)
E|--------------------------------------------------------------|
B|--------------------------------------------------------------|
G|--------------------------------------------------------------|8x
D|--------------------------------------------------------------|
A|-----10---10---------8---8---------7---7---------8---8--------|
D|-0-0----0----0---0-0---0---0---0-0---0---0---8-8---8---8------|

  Bridge (Distortion)
E|--------------------------------------------------------------|
B|--------------------------------------------------------------|
G|--------------------------------------------------------------|2x
D|--------------------------------------------------------------|
A|---7---7-7-----8---8-8-----10---10-10-----12---12-12----------|
D|-0---0-------0---0-------0----0---------0----0----------------|

  Chorus (Heavy Distortion)
E|-------------------------------------------------------------------|
B|-----10-10-10-10-----11-11-11-11------13-13-13-13------11-11-11-11-|
G|-----9--9--9--9------10-10-10-10------12-12-12-12------10-10-10-10-|2x
D|-----7--7--7--7------8--8--8--8-------10-10-10-10------8--8--8--8--|
A|---7-7--7--7--7----8-8--8--8--8----10-10-10-10-10----8-8--8--8--8--|
D|-0---7--7--7--7--0---8--8--8--8--0----10-10-10-10--0---8--8--8--8--|

  Verse (Distortion)
E|--------------------------------------------------------------|
B|--------------------------------------------------------------|
G|--------------------------------------------------------------|8x
D|--------------------------------------------------------------|
A|-----10---10---------8---8---------7---7---------8---8--------|
D|-0-0----0----0---0-0---0---0---0-0---0---0---8-8---8---8------|

  Bridge (Distortion)
E|--------------------------------------------------------------|
B|--------------------------------------------------------------|
G|--------------------------------------------------------------|2x
D|--------------------------------------------------------------|
A|---7---7-7-----8---8-8-----10---10-10-----12---12-12----------|
D|-0---0-------0---0-------0----0---------0----0----------------|

  Chorus (Heavy Distortion)
E|-------------------------------------------------------------------|
B|-----10-10-10-10-----11-11-11-11------13-13-13-13------11-11-11-11-|
G|-----9--9--9--9------10-10-10-10------12-12-12-12------10-10-10-10-|2x
D|-----7--7--7--7------8--8--8--8-------10-10-10-10------8--8--8--8--|
A|---7-7--7--7--7----8-8--8--8--8----10-10-10-10-10----8-8--8--8--8--|
D|-0---7--7--7--7--0---8--8--8--8--0----10-10-10-10--0---8--8--8--8--|

  Intro (Distortion)
E|--------------------------------------------------------------|
B|--------------------------------------------------------------|
G|--------------------------------------------------------------|2x
D|--------------------------------------------------------------|
A|-----8---8-----------10----10----------7---7---------8---8----|
D|-0-0---0---0---10-10----10----10---7-7---7---7---8-8---8---8--|

  Solo (Distortion)
E|---------------------------------------------------------------------|
B|-----8---8-8------8---8-8------10---10-10------10---10-10------------|
G|-0-0---0------0-0---0------0-0----0--------0-0----0------------------|
D|---------------------------------------------------------------------|
A|---------------------------------------------------------------------|
D|---------------------------------------------------------------------|

E|---------------------------------------------------------------------|
B|-------10----10-10--------10----10-10------10---10-10-----10---10-10-|
G|-10-10----10--------10-10----10--------7-7----7-------7-7----7-------|2x
D|---------------------------------------------------------------------|
A|---------------------------------------------------------------------|
D|---------------------------------------------------------------------|

  Bridge (Distortion)
E|-------------------------------------|
B|---8--------10--------10-------10----|
G|-8---8---10----10---7----7---7----7--|
D|-------------------------------------|
A|-------------------------------------|
D|-------------------------------------|

  Chorus (Heavy Distortion)
E|-------------------------------------------------------------------|
B|-----10-10-10-10-----11-11-11-11------13-13-13-13------11-11-11-11-|
G|-----9--9--9--9------10-10-10-10------12-12-12-12------10-10-10-10-|2x
D|-----7--7--7--7------8--8--8--8-------10-10-10-10------8--8--8--8--|
A|---7-7--7--7--7----8-8--8--8--8----10-10-10-10-10----8-8--8--8--8--|
D|-0---7--7--7--7--0---8--8--8--8--0----10-10-10-10--0---8--8--8--8--|

  Outro (Heavy Distortion)
E|------------------------------------------------------------------------|
B|------------------------------------------------------------------------|
G|------9--9--9--9------10-10-10-10-------12--12--12--12------10-10-10-10-|6x (Fade Out)
D|------9--9--9--9------10-10-10-10-------12--12--12--12------10-10-10-10-|
A|---7--7--7--7--7---8--8--8--8--8----10--10--10--10--10---8--8--8--8--8--|
D|-0---------------0----------------0--------------------0----------------|
            
Submit corrections

comments powered by Disqus
↑ Back to top | Raging Under The Influence Tabs for Night Of The Black Moon. Lyrics for acoustic guitar and electric guitar. Tablatures and chords are parodies/interpretations of the original songs. You may use it for private study, scholarship, research or language learning purposes only