» » »

Raging Under The Influence, Koal Tabs (ver.1)

Artists:  A B C D E F G H I J K L M N O P Q R S T U V W X Y Z # 
Rating:
0/5 (0 votes)
Koal lessons Tabs too difficult? Try these video lessons and learn fast
                Tuning D-A-D-G-B-E = Drop D
 
 Intro (Clean)
E|------------------------------------------------------------|
B|------------------------------------------------------------|
G|-----------9--------------9--------------9--------------9---|
D|-----9---9---9------9---9---9------9---9---9------9---9---9-|
A|-7-7---7--------7-7---7--------6-6---6--------6-6---6-------|
D|------------------------------------------------------------|

E|------------------------------------------------------------|
B|------------------------------------------------------------|
G|-----------9--------------9--------------9--------------9---|x2
D|-----9---9---9------9---9---9------9---9---9------9---9---9-|
A|-0-0---0--------0-0---0--------7-7---7--------7-7---7-------|
D|------------------------------------------------------------|

  Verse (Distortion)
E|------------------------------------------------------------------------|
B|------------------------------------------------------------------------|
G|------------------------------------------------------------------------|
D|-----9--------9--------9--------9--------9--------9--------9--------9---|
A|-7-7---7--7-7---7--7-7---7--7-7---7--6-6---6--6-6---6--6-6---6--6-6---6-|
D|------------------------------------------------------------------------|

E|------------------------------------------------------------------------|
B|------------------------------------------------------------------------|
G|------------------------------------------------------------------------|x4
D|-----9--------9--------9--------9--------9--------9--------9--------9---|
A|-0-0---0--0-0---0--0-0---0--0-0---0--7-7---7--7-7---7--7-7---7--7-7---7-|
D|------------------------------------------------------------------------|

  Chorus (Heavy Distortion)
E|----------------------------------------------------------|
B|----------------------------------------------------------|
G|----------------------------------------------------------|
D|-9-9-9-9-9-9-9-9-9-9-9-9-9-9--9-9-9-9-9-9-9-9-9-9-9-9-9-9-|
A|-7-7-7-7-7-7-7-7-7-7-7-7-7-7--6-6-6-6-6-6-6-6-6-6-6-6-6-6-|
D|----------------------------------------------------------|

E|----------------------------------------------------------|
B|----------------------------------------------------------|
G|----------------------------------------------------------|x4
D|-9-9-9-9-9-9-9-9-9-9-9-9-9-9--9-9-9-9-9-9-9-9-9-9-9-9-9-9-|
A|-0-0-0-0-0-0-0-0-0-0-0-0-0-0--7-7-7-7-7-7-7-7-7-7-7-7-7-7-|
D|----------------------------------------------------------|

  Bridge (Distortion)
E|-------------------------------------------|
B|-------------------------------------------|
G|-------------------------------------------|
D|---9--------9--------9--------9------------|
A|-7---7-6--7---7-6--7---7-6--7---7-6-4-6-7--|
D|-------------------------------------------|

Verse (Distortion)
E|------------------------------------------------------------------------|
B|------------------------------------------------------------------------|
G|------------------------------------------------------------------------|
D|-----9--------9--------9--------9--------9--------9--------9--------9---|
A|-7-7---7--7-7---7--7-7---7--7-7---7--6-6---6--6-6---6--6-6---6--6-6---6-|
D|------------------------------------------------------------------------|





E|------------------------------------------------------------------------|
B|------------------------------------------------------------------------|
G|------------------------------------------------------------------------|x4
D|-----9--------9--------9--------9--------9--------9--------9--------9---|
A|-0-0---0--0-0---0--0-0---0--0-0---0--7-7---7--7-7---7--7-7---7--7-7---7-|
D|------------------------------------------------------------------------|

Chorus (Heavy Distortion)
E|----------------------------------------------------------|
B|----------------------------------------------------------|
G|----------------------------------------------------------|
D|-9-9-9-9-9-9-9-9-9-9-9-9-9-9--9-9-9-9-9-9-9-9-9-9-9-9-9-9-|
A|-7-7-7-7-7-7-7-7-7-7-7-7-7-7--6-6-6-6-6-6-6-6-6-6-6-6-6-6-|
D|----------------------------------------------------------|

E|----------------------------------------------------------|
B|----------------------------------------------------------|
G|----------------------------------------------------------|x4
D|-9-9-9-9-9-9-9-9-9-9-9-9-9-9--9-9-9-9-9-9-9-9-9-9-9-9-9-9-|
A|-0-0-0-0-0-0-0-0-0-0-0-0-0-0--7-7-7-7-7-7-7-7-7-7-7-7-7-7-|
D|----------------------------------------------------------|

  Bridge (Distortion)
E|-------------------------------------------|
B|-------------------------------------------|
G|-------------------------------------------|
D|---9--------9--------9--------9------------|
A|-7---7-6--7---7-6--7---7-6--7---7-6-4-6-7--|
D|-------------------------------------------|

  Solo 1 (Distortion)
E|---------------------------------------------------------------------------------|
B|-9-9-9-9-9-9-9-9-9-9--9-9-9-9-9-9-9-9-9-9--9-9-9-9-9-9-9-9-9-9--9-9-9-9-9-9-9-9-9|
G|-9-9-9-9-9-9-9-9-9-9--8-8-8-8-8-8-8-8-8-8--6-6-6-6-6-6-6-6-6-6--5-5-5-5-5-5-5-5-5|
D|---------------------------------------------------------------------------------|
A|---------------------------------------------------------------------------------|
D|---------------------------------------------------------------------------------|

E|------------------------------------------|
B|-9-9-9-9-9-9-9-9-9-9--9-9-9-9-9-9-9-9-9-9-|
G|-8-8-8-8-8-8-8-8-8-8--6-6-6-6-6-6-6-6-6-6-|x2
D|------------------------------------------|
A|------------------------------------------|
D|------------------------------------------|

  Solo 2 (Distortion)
E|-----------------------------------------------------------------------------------|
B|-9-9-9-9-9-9-9-9-9-9--12-12-12-12-12-12-12-12-12-12--11-11-11-11-11-11-11-11-11-11-|
G|-9-9-9-9-9-9-9-9-9-9--12-12-12-12-12-12-12-12-12-12--11-11-11-11-11-11-11-11-11-11-|
D|-----------------------------------------------------------------------------------|
A|-----------------------------------------------------------------------------------|
D|-----------------------------------------------------------------------------------|

E|----------------------|
B|-6-6-6-6-6-6-6-6-6-6--|
G|-6-6-6-6-6-6-6-6-6-6--|x2
D|----------------------|
A|----------------------|
D|----------------------|

  Outro (Heavy Distortion)
E|-----------------|
B|-----------------|
G|-7-7-7-6-0-3-0-3-|
D|-7-7-7-6-0-3-0-3-|
A|-----------------|
D|-----------------|
            
Submit corrections

comments powered by Disqus
↑ Back to top | Raging Under The Influence Tabs for Koal. Lyrics for acoustic guitar and electric guitar. Tablatures and chords are parodies/interpretations of the original songs. You may use it for private study, scholarship, research or language learning purposes only