» » »

Raging Under The Influence, Held Down Tabs (ver.1)

Artists:  A B C D E F G H I J K L M N O P Q R S T U V W X Y Z # 

Held Down Tabs (ver.1)

Raging Under The Influence Tabs
Rating:
0/5 (0 votes)
Hard to play? Try these video lessons and learn fast.
                Tuning D-A-D-G-B-E = Drop D
 
 Intro (Distortion)
E|-----------------------------------------------------|
B|-10-10-10-x-10-10-10-x-10-10-10----------------------|
G|-9--9--9--x-9--9--9--x-9--9--9-----------------------|3x
D|-7--7--7--x-7--7--7--x-7--7--7-----------------------|
A|-7--7--7--x-7--7--7--x-7--7--7--10-10-10--5-5-5------|
D|--------------------------------10-10-10--5-5-5------|

E|-----------------------------------------------------|
B|-10-10-10-x-10-10-10-x-10-10-10----------------------|
G|-9--9--9--x-9--9--9--x-9--9--9-----------------------|
D|-7--7--7--x-7--7--7--x-7--7--7---------------------2h|
A|-7--7--7--x-7--7--7--x-7--7--7--10-10-10--12-12-12-2h|
D|--------------------------------10-10-10--12-12-12-2h|

  Verse (Clean)
E|----------------------------------------------------------------------------------|
B|-2-2-2-x-2-2-2-x-2-2-2-x-----------------2-2-2-x-2-2-2-x-2-2-2-x------------------|
G|-3-3-3-x-3-3-3-x-3-3-3-x-10-10-10-9-9-9--3-3-3-x-3-3-3-x-3-3-3-x-10-10-10/12-12-12|2x
D|-0-0-0-x-0-0-0-x-0-0-0-x-x--x--x--x-x-x--0-0-0-x-0-0-0-x-0-0-0-x-x--x--x-/x--x--x-|
A|-0-0-0-x-0-0-0-x-0-0-0-x-8--8--8--7-7-7--0-0-0-x-0-0-0-x-0-0-0-x-8--8--8-/10-10-10|
D|-0-0-0-x-0-0-0-x-0-0-0-x-0--0--0--0-0-0--0-0-0-x-0-0-0-x-0-0-0-x-0--0--0-/0--0--0-|

  Chorus (Heavy Distortion)
E|--------------------------------------------------------------------|
B|--------------------------------------------------------------------|
G|--------------------------------------------------------------------|2x
D|-10/7-7-7--10/7-7-7--10/7-7-7--10/7-7-7--3/5-5--3/5-5--3/5-5--3/5-5-|
A|-x-/7-7-7--x-/7-7-7--x-/7-7-7--x-/7-7-7--3/5-5--3/5-5--3/5-5--3/5-5-|
D|-8-/7-7-7--8-/7-7-7--8-/7-7-7--8-/7-7-7--3/5-5--3/5-5--3/5-5--3/5-5-|

E|----------------------|
B|----------------------|
G|-------------------3h-|
D|-5/8-8-8--10-10-10-5h-|
A|-5/8-8-8--10-10-10-5h-|
D|-5/8-8-8--10-10-10-5h-|

  Bridge (Heavy Distortion)
E|------------------------------------------------|
B|------------------------------------------------|
G|----------------------------------------------0-|
D|----------------------------------------------0-|
A|-0-0--10-10--12-12--5-5--13-13--15-15--12-12--0-|
D|-0-0--10-10--12-12--5-5--13-13--15-15--12-12--0-|

  Verse (Distortion)
E|----------------------------------------------------------------------------------|
B|-2-2-2-x-2-2-2-x-2-2-2-x-----------------2-2-2-x-2-2-2-x-2-2-2-x------------------|
G|-3-3-3-x-3-3-3-x-3-3-3-x-10-10-10-9-9-9--3-3-3-x-3-3-3-x-3-3-3-x-10-10-10/12-12-12|2x
D|-0-0-0-x-0-0-0-x-0-0-0-x-x--x--x--x-x-x--0-0-0-x-0-0-0-x-0-0-0-x-x--x--x-/x--x--x-|
A|-0-0-0-x-0-0-0-x-0-0-0-x-8--8--8--7-7-7--0-0-0-x-0-0-0-x-0-0-0-x-8--8--8-/10-10-10|
D|-0-0-0-x-0-0-0-x-0-0-0-x-0--0--0--0-0-0--0-0-0-x-0-0-0-x-0-0-0-x-0--0--0-/0--0--0-|

  Chorus (Heavy Distortion)
E|--------------------------------------------------------------------|
B|--------------------------------------------------------------------|
G|--------------------------------------------------------------------|2x
D|-10/7-7-7--10/7-7-7--10/7-7-7--10/7-7-7--3/5-5--3/5-5--3/5-5--3/5-5-|
A|-x-/7-7-7--x-/7-7-7--x-/7-7-7--x-/7-7-7--3/5-5--3/5-5--3/5-5--3/5-5-|
D|-8-/7-7-7--8-/7-7-7--8-/7-7-7--8-/7-7-7--3/5-5--3/5-5--3/5-5--3/5-5-|




  Bridge/Intro to Solo (Distortion)
E|----------------------------------------------------------------------------|
B|----------------------------------------------------------------------------|
G|--------------------------------------------------------------------------0-|2x
D|--------------------------------------------------------------------------0-|
A|-0-0-0--10-10-10--12-12-12--5-5-5--13-13-13--15-15-15--12-12-12-12-12-12--0-|
D|-0-0-0--10-10-10--12-12-12--5-5-5--13-13-13--15-15-15--12-12-12-12-12-12--0-|

  Solo (Flanger)
E|----------------------------5/7--7--7/8--8--4--------------|
B|-0p10-10--0p12-12--0p5-5-5---------------------------------|
G|-----------------------------------------------------------|
D|-----------------------------------------------------------|
A|-----------------------------------------------------------|
D|-----------------------------------------------------------|

E|-------------12-12--------------------12-12----------------|
B|-12-13-15-10-------12-13-10--10-12-13-------12-13-15-15-15-|
G|-----------------------------------------------------------|
D|-----------------------------------------------------------|
A|-----------------------------------------------------------|
D|-----------------------------------------------------------|

E|-----------------------------------------------------------|
B|-13-12-10-9-10-12-5----------------------------------------|
G|---------------------5-4-2b--------------------------------|
D|------------------------------5-5-5--6-6-6--3h----5h-------|
A|--------------------------------------------------5h-------|
D|--------------------------------------------------5h-------|

  Outro (Heavy Distortion)
E|-------------------------------------------------------------------|
B|-------------------------------------------------------------------|
G|-----------------------------------5-5-5-5-5-5-5-5-5-5-5-5-5-5-5-5-|10x (Fade Out &
D|-5-5-5-5-5-5-5-5--6-6-6-6-6-6-6-6--3-3-3-3-3-3-3-3-3-3-3-3-3-3-3-3-|     Slow Down)
A|-5-5-5-5-5-5-5-5--6-6-6-6-6-6-6-6--3-3-3-3-3-3-3-3-3-3-3-3-3-3-3-3-|
D|-5-5-5-5-5-5-5-5--6-6-6-6-6-6-6-6--3-3-3-3-3-3-3-3-3-3-3-3-3-3-3-3-|
            

comments powered by Disqus
↑ Back to top | Raging Under The Influence Tabs for Held Down. Lyrics for acoustic guitar and electric guitar. Tablatures and chords are parodies/interpretations of the original songs. You may use it for private study, scholarship, research or language learning purposes only