» » »

Raging Under The Influence, For The People Tabs (ver.1)

Artists:  A B C D E F G H I J K L M N O P Q R S T U V W X Y Z # 

For The People Tabs (ver.1)

Raging Under The Influence Tabs
Rating:
0/5 (0 votes)
For The People lessons Tabs too difficult? Try these video lessons and learn fast
                Tuning E-A-D-G-B-E
 
 Intro (Distortion)
E|-------------------------------------------------------------------|
B|-------------------------------------------------------------------|
G|----------------6-6-6-6-6-6-6-6-------------------3-3-3-3-3-3-3-3--|4x
D|-3-3-3-3-3-3-3--6-6-6-6-6-6-6-6--6-6-6-6-6-6-6-6--3-3-3-3-3-3-3-3--|
A|-3-3-3-3-3-3-3--4-4-4-4-4-4-4-4--6-6-6-6-6-6-6-6--1-1-1-1-1-1-1-1--|
E|-1-1-1-1-1-1-1-------------------4-4-4-4-4-4-4-4-------------------|

  Verse (Distortion)
E|------------------------------------|
B|------------------------------------|
G|-6-6-6-6-----------3-3-3-3----------|x12
D|-6-6-6-6--6-6-6-6--3-3-3-3--3-3-3-3-|
A|-4-4-4-4--6-6-6-6--1-1-1-1--3-3-3-3-|
D|----------4-4-4-4-----------1-1-1-1-|

  Chorus (Distortion)
E|--------------------|	E|--------------------|
B|--------------------|	B|--------------------|
G|-----------6-6------|3x	G|-----------6-6------|
D|-3-3--6-6--6-6--3-3-|	D|-3-3--6-6--6-6--8-8-|
A|-3-3--6-6--4-4--1-1-| 	A|-3-3--6-6--4-4--6-6-|
E|-1-1--4-4-----------| 	E|-1-1--4-4-----------|

  Verse (Distortion)
E|------------------------------------|
B|------------------------------------|
G|-6-6-6-6-----------3-3-3-3----------|x12
D|-6-6-6-6--6-6-6-6--3-3-3-3--3-3-3-3-|
A|-4-4-4-4--6-6-6-6--1-1-1-1--3-3-3-3-|
D|----------4-4-4-4-----------1-1-1-1-|

  Chorus (Distortion)
E|--------------------|	E|--------------------|
B|--------------------|	B|--------------------|
G|-----------6-6------|3x	G|-----------6-6------|
D|-3-3--6-6--6-6--3-3-|	D|-3-3--6-6--6-6--8-8-|
A|-3-3--6-6--4-4--1-1-| 	A|-3-3--6-6--4-4--6-6-|
E|-1-1--4-4-----------| 	E|-1-1--4-4-----------|

  Intro (Distortion)
E|-------------------------------------------------------------------|
B|-------------------------------------------------------------------|
G|----------------6-6-6-6-6-6-6-6-------------------3-3-3-3-3-3-3-3--|4x
D|-3-3-3-3-3-3-3--6-6-6-6-6-6-6-6--6-6-6-6-6-6-6-6--3-3-3-3-3-3-3-3--|
A|-3-3-3-3-3-3-3--4-4-4-4-4-4-4-4--6-6-6-6-6-6-6-6--1-1-1-1-1-1-1-1--|
E|-1-1-1-1-1-1-1-------------------4-4-4-4-4-4-4-4-------------------|

  Solo (Distortion)
E|----------------------------|	E|----------------------------|
B|----------------------------|	B|----------------------------|
G|-5-5--7-7-7-7--8-8--7-7-7-7-|x3	G|-5-5--7-7-7-7--8-8--5-5-5-5-|
D|-3-3--5-5-5-5--6-6--5-5-5-5-|	D|-3-3--5-5-5-5--6-6--3-3-3-3-|
A|----------------------------|	A|----------------------------|
D|----------------------------|	D|----------------------------|
            

comments powered by Disqus
↑ Back to top | Raging Under The Influence Tabs for For The People. Lyrics for acoustic guitar and electric guitar. Tablatures and chords are parodies/interpretations of the original songs. You may use it for private study, scholarship, research or language learning purposes only